Song name
# A B C D E F G H I J K L M N O P Q R S T U V W X Y Z

Kinesis - A Voice To Preserve tab

----------------------------------------------------------------------------
		         A VOIVE TO PRESERVE - Kinesis
----------------------------------------------------------------------------
Tabbed by: Chris Colyer
Email: csc501@myway.com

Tuning: Standard

Intro: (Piano)
e|-------------------------------------------------------------------------|
B|--5------5-----5-----5-----3-----3-----3-----3-----1----1----1-----1-----|
G|----5------5-----5-----5-----5-----5-----5-----5-----0----0----0-----0---|
D|------5------5-----5-----5-----6-----6-----6-----6-----2----2----2-----2-|
A|-------------------------------------------------------------------------|
E|-------------------------------------------------------------------------|
...
e|-----------------------------------------------------------|Second time ending:
B|----1-----1-----3-----3-----------------------------|  |3--|
G|------1-----1-----1-----1---------------------------|  |1--|
D|--------3-----3-----3-----3-------------------------|x2|3--|
A|----------------------------------------------------|  |---|
E|----------------------------------------------------|  |---|
Plays Over
e|--------------------------------------------------------------|
B|--------------------------------------------------------------|
G|-------------------12--13-13-13-13----------------------------|
D|-----10-10-10-------------------------------------------------|x4
A|-------------------10--11-11-11-11----------------------------|
E|-----8--8--8--------------------------------------------------|

Verse (take every word..)
e|--------------------------------------------------------------|
B|--------------------------------------------------------------|
G|-------------------12--13-13-13-13----------------------------|
D|-----10-10-10-------------------------------------------------|x4
A|-------------------10--11-11-11-11----------------------------|
E|-----8--8--8--------------------------------------------------|
Here's another day...
e|--------------------------------------------------------------|
B|--------------------------------------------------------------|
G|-------------------12--13-13-13-13----------------------------|
D|-----10-10-10-------------------------------------------------|x2
A|-------------------10--11-11-11-11----------------------------|
E|-----8--8--8--------------------------------------------------|

Chorus: (Play double the amount for each chord)
e|----------------------------------------------------------------------|
B|-----------------------------9--9--9--9--9--9--9--9-------------------|
G|---9--9--9--9--9--9--9--9----10-10-10-10-10-10-10-10------------------|
D|---10-10-10-10-10-10-10-10---10-10-10-10-10-10-10-10------------------|x2
A|---10-10-10-10-10-10-10-10---8--8--8--8--8--8--8--8-------------------|
E|---8--8--8--8--8--8--8--8---------------------------------------------|
I'm Tired...
e|---------------------------------------------------------------------|
B|-5-5-5-5-5-5-5-5--3-3-3-3-3-3-3-3--8-8-8-8-8-8-8-8--9-9-9-9-9-9-9-9--|
G|-5-5-5-5-5-5-5-5--4-4-4-4-4-4-4-4--9-9-9-9-9-9-9-9--1010101010101010-|
D|-7-7-7-7-7-7-7-7--5-5-5-5-5-5-5-5--1010101010101010-1010101010101010-|
A|-7-7-7-7-7-7-7-7--5-5-5-5-5-5-5-5--1010101010101010-8-8-8-8-8-8-8-8--|
E|-5-5-5-5-5-5-5-5--3-3-3-3-3-3-3-3--8-8-8-8-8-8-8-8-------------------|

Back to start: (Piano)
e|-------------------------------------------------------------------------|
B|--5------5-----5-----5-----3-----3-----3-----5-----1----1----1-----1-----|
G|----5------5-----5-----5-----5-----5-----5-----5-----0----0----0-----0---|
D|------5------5-----5-----5-----6-----6-----6-----6-----2----2----2-----2-|
A|-------------------------------------------------------------------------|
E|-------------------------------------------------------------------------|
...
e|-----------------------------------------------------------|Second time ending:
B|----1-----1-----3-----3-----------------------------|  |3--|
G|------1-----1-----1-----1---------------------------|  |1--|
D|--------3-----3-----3-----3-------------------------|x2|3--|
A|----------------------------------------------------|  |---|
E|----------------------------------------------------|  |---|
Plays Over
e|--------------------------------------------------------------|
B|--------------------------------------------------------------|
G|-------------------12--13-13-13-13----------------------------|
D|-----10-10-10-------------------------------------------------|x4
A|-------------------10--11-11-11-11----------------------------|
E|-----8--8--8--------------------------------------------------|

Guitar - Scrape plectrum sideways across strings.

Big Ending:
Chords:
e|---------------------------------------------------------------------|
B|-5-5-5-5-5-5-5-5--3-3-3-3-3-3-3-3--8-8-8-8-8-8-8-8--9-9-9-9-9-9-9-9--|
G|-5-5-5-5-5-5-5-5--4-4-4-4-4-4-4-4--9-9-9-9-9-9-9-9--1010101010101010-|
D|-7-7-7-7-7-7-7-7--5-5-5-5-5-5-5-5--1010101010101010-1010101010101010-|
A|-7-7-7-7-7-7-7-7--5-5-5-5-5-5-5-5--1010101010101010-8-8-8-8-8-8-8-8--|
E|-5-5-5-5-5-5-5-5--3-3-3-3-3-3-3-3--8-8-8-8-8-8-8-8-------------------|
Lead Guitar: all tremolo picked, over the top of the chords the | symbol marks the 
from one chord to the next.
e|-------------------------------------------------------------------------|
B|---10---12--13--|-8--10--12--13--|-15--------------|6---8-----6----------|
G|-------------------------------------------------------------------------|
D|-------------------------------------------------------------------------|
A|-------------------------------------------------------------------------|
E|-------------------------------------------------------------------------|

e|-------------------------------------------------------------------------|
B|---10--12--13--15|17-----15-------|17------15------|6---8-----6----------|
G|-------------------------------------------------------------------------|
D|-------------------------------------------------------------------------|
A|-------------------------------------------------------------------------|
E|-------------------------------------------------------------------------|

e|-------------------------------------------------------------------------|
B|---10---12--13-|---15----13--12---8-|12--10--8--6--|13--15--13-----12----|
G|-------------------------------------------------------------------------|
D|-------------------------------------------------------------------------|
A|-------------------------------------------------------------------------|
E|-------------------------------------------------------------------------|

e|-------------------------------------------------------------------------|
B|--15--------|--17--------|-18-------17-18-17-18-17-18-17-18|--15---------|
G|-------------------------------------------------------------------------|
D|-------------------------------------------------------------------------|
A|-------------------------------------------------------------------------|
E|-------------------------------------------------------------------------|

e|-------------------------------------------------------------------------|
B|-10----12--|13-12-10-8-|-6---5--6-5-|-3--5--3----1-0---------------------|
G|-------------------------------------------------------2-----------------|
D|-------------------------------------------------------------------------|
A|-------------------------------------------------------------------------|
E|-------------------------------------------------------------------------|
Ending Chord:
e|---|
B|---|
G|-5-|
D|-7-|
A|-7-|
E|-5-|

The End lead section is really faint, plus there's a violin and I think a second guitar 
there, so what I've got is probably a bit of a combo, but all you can really hear are 
chords anyway.

| /  slide up
| \  slide down
| h  hammer-on
| p  pull-off
| ~  vibrato
| +  harmonic
| x  Mute note
============================================================================
Tap to rate this tab
# A B C D E F G H I J K L M N O P Q R S T U V W X Y Z