Song name
# A B C D E F G H I J K L M N O P Q R S T U V W X Y Z

Kinesis - Everything You Thought You Knew To Be tab

Help us improve GuitareTab! Take a short survey!
----------------------------------------------------------------------------
	      EVERYTHING YOU THOUGHT YOU KNEW TO BE - Kinesis
----------------------------------------------------------------------------
Tabbed by: Chris Colyer
Email: csc501@myway.com

Tuning: Standard

Build-up
e|---------------------------------------------------------------------------|
B|---------------------------------------------------------------------------|
G|---------------------------------------------------------------------------|
D|---------------------------------------------------------------------------|
A|---10-10-10-10-10-10-10-10-10-10-10-10---/10-------------------------------|
E|---------------------------------------3/----------------------------------|
Main Lick (Tremolo Pick)
e|-----14/15-13---11-10-/14--14-15-17-18-20-22-----------------------------|
B|-8-11--------------------------------------------------------------------|
G|----------------------------------------------/15-17p15h19p15h17p15h19p15|
D|-------------------------------------------------------------------------|
A|-------------------------------------------------------------------------|
E|-------------------------------------------------------------------------|
...
e|-----------------------------------------14-15-14-15-14-15-14------------|
B|-----------------15-16-15-16-15-16-15-16---------------------------------|
G|--14----14-15-12---------------------------------------------------------|
D|-------------------------------------------------------------------------|
A|-------------------------------------------------------------------------|
E|-------------------------------------------------------------------------|

Verse: (Repeat once)
e|-------------------------------------------------------------------------|
B|-1111111111111111-1010101010101010-8888888888888888----------------------|
G|-------------------------------------------------------------------------|
D|-8-8-8-8-8-8-8-8--7-7-7-7-7-7-7-7--5555555555555555----------------------|
A|-------------------------------------------------------------------------|
E|-------------------------------------------------------------------------|

e|---------------------------------------------------------------------------|
B|-1111111111111111-1010101010101010-15151515151515151515151515151515--------|
G|---------------------------------------------------------------------------|
D|-8-8-8-8-8-8-8-8--7-7-7-7-7-7-7-7--12121212121212121212121212121212--------|
A|---------------------------------------------------------------------------|
E|---------------------------------------------------------------------------|

e|-------------------------------------------------------------------------|
B|--1313131313131313-1616161616161616-1515151515151515-1818181818181818----|
G|-------------------------------------------------------------------------|
D|--1010101010101010-1313131313131313-1212121212121212-1515151515151515----|
A|-------------------------------------------------------------------------|
E|-------------------------------------------------------------------------|

e|---------------------------------------14-15-14-15-14--------------------|
B|--1616161616161616-1515151515151515--------------------------------------|
G|-------------------------------------------------------------------------|
D|--1313131313131313-1212121212121212--------------------------------------|
A|-------------------------------------------------------------------------|
E|-------------------------------------------------------------------------|

Chorus:
e|-----------------------------------------------------------------------|
B|-----------------------------------------------------------------------|
G|-----------------------------------------------------------------------|
D|-----------8------------3----------------------------------------------|
A|---8-8-8-8-8----3-3-3-3-3---1010101010101010---1313131313131313--------|
E|---6-6-6-6------1-1-1-1-----8-8-8-8-8-8-8-8----1111111111111111--------|

e|-----------------------------------------------------------------------|
B|-----------------------------------------------------------------------|
G|---------------------------------14-15-17-15-14-15-17-15-19-19-19-19-19|
D|-----------8--------------3--------------------------------------------|
A|---8-8-8-8-8------3-3-3-3-3--------------------------------------------|
E|---6-6-6-6--------1-1-1-1----------------------------------------------|

e|---------------------------------------------------------------------------|
B|---------------------------------------------------------------------------|
G|---------------------------------------------------------------------------|
D|---------------------------------------------------------------------------|
A|---5-5-5-5/17---3-3-3-3/15--1010101010101010--1313131313131313-------------|
E|---3-3-3-3/15---1-1-1-1/13--8-8-8-8-8-8-8-8---1111111111111111-------------|

e|-----------------------------------------------------------------------|
B|-----------------------------------------------------------------------|
G|-----------------------------------------------12------10--------------|
D|-----------8------------3-------------------10-------------------------|
A|---8-8-8-8-8----3-3-3-3-3----------------10----------------------------|
E|---6-6-6-6------1-1-1-1------------------------------------------------|


Main Lick (Tremolo Pick)
e|-----14/15-13---11-10-/14--14-15-17-18-20-22~~---------------------------|
B|-8-11--------------------------------------------------------------------|
G|-------------------------------------------------------------------------|
D|-------------------------------------------------------------------------|
A|-------------------------------------------------------------------------|
E|-------------------------------------------------------------------------|

Verse: (Repeat once)
e|-------------------------------------------------------------------------|
B|-1111111111111111-1010101010101010-8888888888888888----------------------|
G|-------------------------------------------------------------------------|
D|-8-8-8-8-8-8-8-8--7-7-7-7-7-7-7-7--5555555555555555----------------------|
A|-------------------------------------------------------------------------|
E|-------------------------------------------------------------------------|

e|---------------------------------------------------------------------------|
B|-1111111111111111-1010101010101010-15151515151515151515151515151515--------|
G|---------------------------------------------------------------------------|
D|-8-8-8-8-8-8-8-8--7-7-7-7-7-7-7-7--12121212121212121212121212121212--------|
A|---------------------------------------------------------------------------|
E|---------------------------------------------------------------------------|

e|-------------------------------------------------------------------------|
B|--1313131313131313-1616161616161616-1515151515151515-1818181818181818----|
G|-------------------------------------------------------------------------|
D|--1010101010101010-1313131313131313-1212121212121212-1515151515151515----|
A|-------------------------------------------------------------------------|
E|-------------------------------------------------------------------------|

e|---------------------------------------14-15-14-15-14--------------------|
B|--1616161616161616-1515151515151515--------------------------------------|
G|-------------------------------------------------------------------------|
D|--1313131313131313-1212121212121212--------------------------------------|
A|-------------------------------------------------------------------------|
E|-------------------------------------------------------------------------|


Chorus:
e|-----------------------------------------------------------------------|
B|-----------------------------------------------------------------------|
G|-----------------------------------------------------------------------|
D|-----------8------------3----------------------------------------------|
A|---8-8-8-8-8----3-3-3-3-3---1010101010101010---1313131313131313--------|
E|---6-6-6-6------1-1-1-1-----8-8-8-8-8-8-8-8----1111111111111111--------|

e|-----------------------------------------------------------------------|
B|-----------------------------------------------------------------------|
G|---------------------------------14-15-17-15-14-15-17-15-19-19-19-19-19|
D|-----------8--------------3--------------------------------------------|
A|---8-8-8-8-8------3-3-3-3-3--------------------------------------------|
E|---6-6-6-6--------1-1-1-1----------------------------------------------|

e|-------------------------------------------------------------------------|
B|-------------------------------------------------------------------------|
G|-------------------------------------------------------------------------|
D|-------------------------------------------------------------------------|
A|---5-5-5-5/17---3-3-3-3/15--1010101010101010--1313131313131313-----------|
E|---3-3-3-3/15---1-1-1-1/13--8-8-8-8-8-8-8-8---1111111111111111-----------|

e|-------------------------------------------------------------------------|
B|-------------------------------------------------------------------------|
G|---------------------------------12---10------------12---12-10---10------|
D|-----------8------------3------10-------13-------10-----------13---13-12-|
A|---8-8-8-8-8----3-3-3-3-3----10--10-10---------10---10---10--------------|
E|---6-6-6-6------1-1-1-1--------------------------------------------------|

Interlude:
e|--------------------------------------------------------|
B|--------------------------------------------------------|
G|-12-14-12-15-12-14-12-15-12-14-12-15-12-14-12-15--------|
D|--------------------------------------------------------|x2
A|--------------------------------------------------------|
E|--------------------------------------------------------|

e|-------------------------------------------------------------------------|
B|-------------------------------------------------------------------------|
G|--14-15-14-17-14-15-14-17-14-15-14-17-14-15-14-17------------------------|
D|-------------------------------------------------------------------------|
A|-------------------------------------------------------------------------|
E|-------------------------------------------------------------------------|

e|-------------------------------------------------------------------------|
B|---11-13-11-15-11-13-11-15-11-13-11-15-11-13-11-15-----------------------|
G|-------------------------------------------------------------------------|
D|-------------------------------------------------------------------------|
A|-------------------------------------------------------------------------|
E|-------------------------------------------------------------------------|

e|--------------------------------------14h15p14h15p14h15p14h15p14---------|
B|---15-16-15-18-15-16-15-18-15-16-15-18-----------------------------------|
G|-------------------------------------------------------------------------|
D|-------------------------------------------------------------------------|
A|-------------------------------------------------------------------------|
E|-------------------------------------------------------------------------|
Main Lick (Tremolo Pick)
e|-----14/15-13---11-10-/14---------14/15-13---11-10-/14-------------------|
B|-8-11---------------------13\8--11---------------------------------------|
G|-------------------------------------------------------------------------|
D|-------------------------------------------------------------------------|
A|-------------------------------------------------------------------------|
E|-------------------------------------------------------------------------|
...
e|--15-------------------------------------14-15-14-15-14-15-14------------|
B|-----------------15-16-15-16-15-16-15-16---------------------------------|
G|--------14---12----------------------------------------------------------|
D|-------------------------------------------------------------------------|
A|--------12---10----------------------------------------------------------|
E|-------------------------------------------------------------------------|

Chorus:
e|-----------------------------------------------------------------------|
B|-----------------------------------------------------------------------|
G|-----------------------------------------------------------------------|
D|-----------8------------3----------------------------------------------|
A|---8-8-8-8-8----3-3-3-3-3---1010101010101010---1313131313131313--------|
E|---6-6-6-6------1-1-1-1-----8-8-8-8-8-8-8-8----1111111111111111--------|

e|-----------------------------------------------------------------------|
B|-----------------------------------------------------------------------|
G|---------------------------------14-15-17-15-14-15-17-15-19-19-19-19-19|
D|-----------8--------------3--------------------------------------------|
A|---8-8-8-8-8------3-3-3-3-3--------------------------------------------|
E|---6-6-6-6--------1-1-1-1----------------------------------------------|

e|---------------------------------------------------------------------------|
B|---------------------------------------------------------------------------|
G|---------------------------------------------------------------------------|
D|---------------------------------------------------------------------------|
A|---5-5-5-5/17---3-3-3-3/15--1010101010101010--1313131313131313-------------|
E|---3-3-3-3/15---1-1-1-1/13--8-8-8-8-8-8-8-8---1111111111111111-------------|

e|-----------------------------------------------------------------------|
B|-----------------------------------------------------------------------|
G|-----------------------------------------------12------10--------------|
D|-----------8------------3-------------------10-------------------------|
A|---8-8-8-8-8----3-3-3-3-3----------------10----------------------------|
E|---6-6-6-6------1-1-1-1------------------------------------------------|
Outro (tremolo pick)
e|-------------------------------------------------------------------------|
B|-----8----7---------------/8---------------------------------------------|
G|---------------5---------------------------------------------------------|
D|-----5----4---------------/5---------------------------------------------|
A|---------------3---------------------------------------------------------|
E|-------------------------------------------------------------------------|

| /  slide up
| \  slide down
| h  hammer-on
| p  pull-off
| ~  vibrato
| +  harmonic
| x  Mute note
============================================================================
Related for Everything You Thought You Knew To Be tab