Song name
# A B C D E F G H I J K L M N O P Q R S T U V W X Y Z

Kinesis - Have My Sympathy tab

----------------------------------------------------------------------------
			 HAVE MY SYMPATHY - Kinesis
----------------------------------------------------------------------------

Tabbed by: Chris Colyer
Tuning: Standard

Intro: (Jet effect)
e|-----------------------------------------------------------------------|
B|-----------------------------------------------------------------------|
G|-----------------------------------------------------------------------|
D|-----------------------------------------------------------------------|
A|-7-7-7-7-7-7-7-7-7-7-7-7-7-10-10-10-7-7-7-7-7-7-7-7-7-7-7-7-7-5-5-5----|
E|-----------------------------------------------------------------------|
Main Riff (slight reverb)
e|-------------10-10-------------------------------------------------------|
B|-------12-12-------------------------------------------------------------|
G|---9-9-------------11-11-9-9-12-12-11-11---------------------------------|
D|-----------------------------------------12-12---------------------------|
A|-------------------------------------------------------------------------|
E|-------------------------------------------------------------------------|
Plays Over
e|-----------------------------------------------------------------------|
B|-----------------------------------------------------------------------|
G|-9-9-9-9-9-9-9-9-9-9-9-9-9-12-12-12-9-9-9-9-9-9-9-9-9-9-9-9-9-7-7-7----|
D|-9-9-9-9-9-9-9-9-9-9-9-9-9-12-12-12-9-9-9-9-9-9-9-9-9-9-9-9-9-7-7-7----|
A|-7-7-7-7-7-7-7-7-7-7-7-7-7-10-10-10-7-7-7-7-7-7-7-7-7-7-7-7-7-5-5-5----|
E|-----------------------------------------------------------------------|
...
e|-------------------------------------------------------------------------|
B|-------------------------------------------------------------------------|
G|5-5-5-5-5-5-5-5-5-5-5-5-5-121212--5-5-5-5-5-5-5-5-14-14-14-14-12-12-12-12|
D|5-5-5-5-5-5-5-5-5-5-5-5-5-121212--5-5-5-5-5-5-5-5-14-14-14-14-12-12-12-12|
A|3-3-3-3-3-3-3-3-3-3-3-3-3-101010--3-3-3-3-3-3-3-3-12-12-12-12-10-10-10-10|
E|-------------------------------------------------------------------------|

1st Verse (scream, hoping someone will hear..)
e|-----------------------------------------------------------------------|
B|-----------------------------------------------------------------------|
G|-----------------------------------------------------------------------|
D|-----------------------------------------------------------------------|
A|-7-7-7-7-7-7-7-7-7-7-7-7-7-10-10-10-7-7-7-7-7-7-7-7-7-7-7-7-7-/12\\\---|
E|----------------------------------------------------------------------|
Second Guitar (simultaneously)
e|-------------------------------------------------------------------------|
B|-------------------------------------------------------------------------|
G|-9-9-9-9-9-9-9-9-9-9-9-9-9-9-9-9-9-9-9-9-9-9-9-9-9-9-9-9-9-9-9-9-9-9-9-9-|
D|-------------------------------------------------------------------------|
A|-------------------------------------------------------------------------|
E|-------------------------------------------------------------------------|
1st Guitar
e|-------------------------------------------------------------------------|
B|-------------------------------------------------------------------------|
G|5-5-5-5-5-5-5-5-5-5-5-5-5-121212--5-5-5-5-5-5-5-5-14-14-14-14-12-12-12-12|
D|5-5-5-5-5-5-5-5-5-5-5-5-5-121212--5-5-5-5-5-5-5-5-14-14-14-14-12-12-12-12|
A|3-3-3-3-3-3-3-3-3-3-3-3-3-101010--3-3-3-3-3-3-3-3-12-12-12-12-10-10-10-10|
E|------------------------------------------------------------------------| 
2nd simultaneous:
e|-------------------------------------------------------------------------|
B|-------------------------------------------------------------------------|
G|-9-9-9-9-9-9-9-9-9-9-9-9-9-9-9-9-9-9-9-9-9-9-9-9-9-9-9-9-9-9-9-9-9-9-9-9-|
D|-------------------------------------------------------------------------|
A|-------------------------------------------------------------------------|
E|-------------------------------------------------------------------------|

1st Guitar
e|-----------------------------------------------------------------------|
B|-----------------------------------------------------------------------|
G|-----------------------------------------------------------------------|
D|-----------------------------------------------------------------------|
A|-7-7-7-7-7-7-7-7-7-7-7-7-7-10-10-10-7-7-7-7-7-7-7-7-7-7-7-7-7-/12\\\---|
E|----------------------------------------------------------------------|
Second Guitar (simultaneously)
e|-------------------------------------------------------------------------|
B|-------------------------------------------------------------------------|
G|-9-9-9-9-9-9-9-9-9-9-9-9-9-9-9-9-9-9-9-9-9-9-9-9-9-9-9-9-9-9-9-9-9-9-9-9-|
D|-------------------------------------------------------------------------|
A|-------------------------------------------------------------------------|
E|-------------------------------------------------------------------------|

1st Guitar
e|-------------------------------------------------------------------------|
B|-------------------------------------------------------------------------|
G|5-5-5-5-5-5-5-5-5-5-5-5-5-121212--2-2-2-2-2-2-2-2-14-14-14-14-12-12-12-12|
D|5-5-5-5-5-5-5-5-5-5-5-5-5-121212--2-2-2-2-2-2-2-2-14-14-14-14-12-12-12-12|
A|3-3-3-3-3-3-3-3-3-3-3-3-3-101010--0-0-0-0-0-0-0-0-12-12-12-12-10-10-10-10|
E|------------------------------------------------------------------------| 
2nd simultaneous:
e|-------------------------------------------------------------------------|
B|-------------------------------------------------------------------------|
G|-9-9-9-9-9-9-9-9-9-9-9-9-9-9-9-9-9-9-9-9-9-9-9-9-9-9-9-9-9-9-9-9-9-9-9-9-|
D|-------------------------------------------------------------------------|
A|-------------------------------------------------------------------------|
E|-------------------------------------------------------------------------|

Pre Chorus:
e|-------------10-10----------------10-10----------------------------------|
B|-------12-12-----------------12-12---------------------------------------|
G|---9-9-------------11-11-9-9------------11-11----------------------------|
D|-------------------------------------------------------------------------|
A|-------------------------------------------------------------------------|
E|-------------------------------------------------------------------------|

Chorus: (Have My Sympathy, ask no more...)
e|---------10-10---------------------------------10-10---------------------|
B|----12-12----------------------------------12-12-------------------------|
G|-9-9----------11-11-9-9-12-12-11-11-----9-9---------11-11-9-9-12-12-11-11|
D|-----------------------------------12-12---------------------------------|
A|-------------------------------------------------------------------------|
E|-------------------------------------------------------------------------|
...
e|--------------10-10-----------------------------7-7-5-5------7-7-5-5-----|
B|---------12-12-----------------------------------------7-7----------7-7--|
G|------9-9----------11-11-9-9-12-12-11-11-----8-8----------8-8------------|
D|-12-12----------------------------------12-12----------------------------|
A|-------------------------------------------------------------------------|
E|-------------------------------------------------------------------------|

Repeat Chorus

Chorus End: (Palmu mute chords)
e|----------2--------0------------5---------10-----------------------------|
B|----------5bu7-----3bu5---------8bu10-----13bu15-------------------------|
G|-------------------------------------------------------------------------|
D|-------------------------------------------------------------------------|
A|-9-9-9-9-9----7-7-7----9-9-9-9-9-----9-9-9-------------------------------|
E|-7-7-7-7-7----5-5-5----7-7-7-7-7-----7-7-7-------------------------------|

2nd Verse (sleep, with a sword by your side..)
1st (Palm Mute)
e|-------------------------------------------------------------------------|
B|-------------------------------------------------------------------------|
G|-------------------------------------------------------------------------|
D|-------------------------------------------------------------------------|
A|-7-7-7-10-7-7-7-7-7-7-7-7-7-7-10-10-10-7-7-7-7-7-7-7-7-7-7-7-7-7-10-10-10|
E|-------------------------------------------------------------------------|
2nd Simultaneous
e|-------------------------------------------------------------------------|
B|-------------------------------------------------------------------------|
G|-------------------------------------------------------------------------|
D|-------------------------------------------------------------------------|
A|-----------------------------------------------------------------/12\\\--|
E|-------------------------------------------------------------------------|

1st
e|-------------------------------------------------------------------------|
B|-------------------------------------------------------------------------|
G|-------------------------------------------------------------------------|
D|-------------------------------------------------------------------------|
A|7-7-7-7-7-7-7-7-7-7-7-7-7-101010-7-7-7-7-7-7-7-7-12-12-12-12-10-10-10-10-|
E|-------------------------------------------------------------------------|
2nd simultaneous
e|-------------------------------------------------------------------------|
B|-------------------------------------------------------------------------|
G|5-5-5-5-5-5-5-5-5-5-5-5-5-121212--5-5-5-5-5-5-5-5-14-14-14-14-12-12-12-12|
D|5-5-5-5-5-5-5-5-5-5-5-5-5-121212--5-5-5-5-5-5-5-5-14-14-14-14-12-12-12-12|
A|3-3-3-3-3-3-3-3-3-3-3-3-3-101010--3-3-3-3-3-3-3-3-12-12-12-12-10-10-10-10|
E|-------------------------------------------------------------------------|

1st
e|-------------------------------------------------------------------------|
B|-------------------------------------------------------------------------|
G|-------------------------------------------------------------------------|
D|-------------------------------------------------------------------------|
A|-7-7-7-7-7-7-7-7-7-7-7-7-7-7-10-10-10-7-7-7-7-7-7-7-7-7-7-7-7-7-10-10-10-|
E|-------------------------------------------------------------------------|
2nd Simultaneous
e|-----------------------------------------------------------------------|
B|-----------------------------------------------------------------------|
G|-9-9-9-9-9-9-9-9-9-9-9-9-9-12-12-12-9-9-9-9-9-9-9-9-9-9-9-9-9--/14\\\--|
D|-9-9-9-9-9-9-9-9-9-9-9-9-9-12-12-12-9-9-9-9-9-9-9-9-9-9-9-9-9--/14\\\--|
A|-7-7-7-7-7-7-7-7-7-7-7-7-7-10-10-10-7-7-7-7-7-7-7-7-7-7-7-7-7--/12\\\--|
E|-----------------------------------------------------------------------|

1st
e|-------------------------------------------------------------------------|
B|-------------------------------------------------------------------------|
G|-------------------------------------------------------------------------|
D|-------------------------------------------------------------------------|
A|7-7-7-7-7-7-7-7-7-7-7-7-7-101010-7-7-7-7-7-7-7-7-12-12-12-12-10-10-10-10|
E|-------------------------------------------------------------------------|
2nd simultaneous
e|-------------------------------------------------------------------------|
B|-------------------------------------------------------------------------|
G|5-5-5-5-5-5-5-5-5-5-5-5-5-121212--2-2-2-2-2-2-2-2-14-14-14-14-12-12-12-12|
D|5-5-5-5-5-5-5-5-5-5-5-5-5-121212--2-2-2-2-2-2-2-2-14-14-14-14-12-12-12-12|
A|3-3-3-3-3-3-3-3-3-3-3-3-3-101010--0-0-0-0-0-0-0-0-12-12-12-12-10-10-10-10|
E|------------------------------------------------------------------------| 


Pre Chorus:
e|-------------10-10----------------10-10----------------------------------|
B|-------12-12-----------------12-12---------------------------------------|
G|---9-9-------------11-11-9-9------------11-11----------------------------|
D|-------------------------------------------------------------------------|
A|-------------------------------------------------------------------------|
E|-------------------------------------------------------------------------|

Chorus: (Have My Sympathy, ask no more...)
e|---------10-10---------------------------------10-10---------------------|
B|----12-12----------------------------------12-12-------------------------|
G|-9-9----------11-11-9-9-12-12-11-11-----9-9---------11-11-9-9-12-12-11-11|
D|-----------------------------------12-12---------------------------------|
A|-------------------------------------------------------------------------|
E|-------------------------------------------------------------------------|
...
e|--------------10-10-----------------------------7-7-5-5------7-7-5-5-----|
B|---------12-12-----------------------------------------7-7----------7-7--|
G|------9-9----------11-11-9-9-12-12-11-11-----8-8----------8-8------------|
D|-12-12----------------------------------12-12----------------------------|
A|-------------------------------------------------------------------------|
E|-------------------------------------------------------------------------|

Repeat Chorus

Second Out Chorus:
e|-----5--------5-------5------5------------------------------------|
B|-----8bu10----8bu10---8bu10--8bu10---------------------------------|
G|------------------------------------9-9-9-8-7----------------------|
D|-------------------------------------------------------------------|x3
A|------------------------------------7-7-7-6-5----------------------|
E|-------------------------------------------------------------------|

e|-5-----5-----5-----5-----10-----10-----10-----10-----10-----10-----10----|
B|-8bu10-8bu10-8bu10-8bu10-13bu15-13bu15-13bu15-13bu15-13bu15-13bu15-13bu15|
G|-------------------------------------------------------------------------|
D|-------------------------------------------------------------------------|
A|-------------------------------------------------------------------------|
E|-------------------------------------------------------------------------|

Final Chorus: (Main Riff)
e|---------10-10---------------------------------10-10---------------------|
B|----12-12----------------------------------12-12-------------------------|
G|-9-9----------11-11-9-9-12-12-11-11-----9-9---------11-11-9-9-12-12-11-11|
D|-----------------------------------12-12---------------------------------|
A|-------------------------------------------------------------------------|
E|-------------------------------------------------------------------------|
...
e|--------------10-10-----------------------------7-7-5-5------7-7-5-5-----|
B|---------12-12-----------------------------------------7-7----------7-7--|
G|------9-9----------11-11-9-9-12-12-11-11-----8-8----------8-8------------|
D|-12-12----------------------------------12-12----------------------------|
A|-------------------------------------------------------------------------|
E|-------------------------------------------------------------------------|

Repeat Chorus, Second time add: (Crystal-al-al-al-al-al-al-al-al)
e|-------7-7-5-5------7-7-5-5-----|
B|--------------7-7----------7-7--|
G|----8-8----------8-8------------|
D|--------------------------------|
A|--------------------------------|
E|--------------------------------|

End
e|--2-------------------------------------------------------|
B|--5bu7----------------------------------------------------|
G|----------------------------------------------------------|
D|----------------------------------------------------------|
A|----------------------------------------------------------|
E|----------------------------------------------------------|

| /  slide up
| \  slide down
| h  hammer-on
| p  pull-off
| ~  vibrato
| +  harmonic
| x  Mute note
| bu Bend up to
============================================================================
Tap to rate this tab
 
# A B C D E F G H I J K L M N O P Q R S T U V W X Y Z