Song name
# A B C D E F G H I J K L M N O P Q R S T U V W X Y Z

King Adora - Big Isnt Beautiful tab

Big Isn't Beautiful


Verses -play each chord x4 then repeat a lot
-------------------------------------------------------------------------|E
-------------------------------------------------------------------------|B
-------------------------------------------------------------------------|G
----------------------4------------------5------------------2------------|D
5--------------------2------------------3------------------0-------------|A
3------------------------------------------------------------------------|E


Chorus - play each chord x4 except the last two which are played 8 times
-------------------------------------------------------------------------|E
-------------------------------------------------------------------------|B
-------------------------------------------------------------------------|G
5---------7--------------------5---------5---------7---------4-----------|D
3---------5---------5---------3---------3---------5---------2------------|A
----------------------3--------------------------------------------------|E


-------------------------------------------------------------------------|E
-------------------------------------------------------------------------|B
-------------------------------------------------------------------------|G
5---------7--------------------5---------8------------------10-----------|D
3---------5---------5---------3---------6--------------------8-----------|A
----------------------3--------------------------------------------------|E
Tap to rate this tab
 
# A B C D E F G H I J K L M N O P Q R S T U V W X Y Z