King Charles - Beating Heart tab

All w/Capo @ 7th Fret

Tabbed as actual frets, non-relative to capo

Intro (w/slide)
e|------------------------------|----------------------------|
B|------------------------------|----------------------------|
G|-16\14--7--16\14--7--16\14--7-|-/12-12-12-7-/12-12-12\11-9-|
D|------------------------------|----------------------------|
A|------------------------------|----------------------------|
E|------------------------------|----------------------------|

e|------------------------------|------------------------------|
B|------------------------------|------------------------------|
G|-16\14--7--16\14--7--16\14--7-|-/12-12-12-7-/12-12-12\11-9-7-|
D|------------------------------|------------------------------|
A|------------------------------|------------------------------|
E|------------------------------|------------------------------|

Verses
e|-----------------------------------------------|-------------------------------------------|
B|-----------------------------------------------|-------------------------------------------|
G|-----------------------------------------------|-------------------------------------------|
D|-----------------------------------------------|------------------------9----------9-------| x2
A|----9----9----9----9----12----10p--9-12----10p-|--9-7----7----7----7---------10---------10-|
E|-10---10---10---10---10----10-----10----10-----|-10---10---10---10---10---10----10---10----|

Fill
e|-----------------------------------------|
B|-----------------------------------------|
G|-----------------------------------------|
D|-----------------------------------------|
A|----9----9----9----9----9----9----9----9-|
E|-10---10---10---10---10---10---10---10---|


Choruses
e|------9-9-9-------|------9-9-9-9-9-|
B|------9-9-9-------|--8---8-8-8-8-8-|
G|--7---7-7-7-7-7-7-|--7---7-7-7-7-7-|
D|--7---------7-7-7-|--9-------------| x2
A|--9---------9-9-7-|-10-------------|
E|-10---------------|----------------|
Tap to rate this tab
 
# A B C D E F G H I J K L M N O P Q R S T U V W X Y Z