Song name
# A B C D E F G H I J K L M N O P Q R S T U V W X Y Z

King Charles - Mr Flick tab

Intro
e|---------------------------------|
B|---------------------------------|
G|---------------------------------|
D|---------------------------------| x4
A|-7-7-7-7-7-7-7-7-7-7-7-7-7-7-7-7-|
E|---------------------------------|

Main Riff
e|----------------------|
B|----------------------|
G|---9-7---7------------|
D|-------9--- 9-7h9p7---| x8
A|-7-----------------10-|
E|----------------------|

Pre-Verse
e|---------------------------------|
B|---------------------------------|
G|---------------------------------|
D|---------------------------------| x3
A|-7-7-7-7-7-7-7-7-7-7-7-7-7-7-7-7-|
E|---------------------------------|

e|-------------------------|
B|-------------------------|
G|-------------------------|
D|-----------------2---2---| x3
A|-7-7-7-7-7-7-7-7-2---2---|
E|-------------------0---0-|

Verse
e|---------------------------------|
B|---------------------------------|
G|---------------------------------|
D|---------------------------------| x8
A|-7-7-7-7-7-7-7-7-7-7-7-7-7-7-7-7-|
E|---------------------------------|

Main Riff
e|----------------------|
B|----------------------|
G|---9-7---7------------|
D|-------9---9-7h9p7----| x8
A|-7-----------------10-|
E|----------------------|

Verse 2
e|---------------------------------|
B|---------------------------------|
G|---------------------------------|
D|---------------------------------| x2
A|-7-7-7-7-7-7-7-7-7-7-7-7-7-7-7-7-|
E|---------------------------------|

e|-------------------------------------------|
B|-------------------------------------------|
G|----------------------------------------12-|
D|------------12--------------12-11h12h14----|
A|---10h12h14--------10h12h14----------------|
E|-0---------------0-------------------------|


Main Riff
e|----------------------|
B|----------------------|
G|---9-7---7------------|
D|-------9---9-7h9p7----| x4
A|-7-----------------10-|
E|----------------------|

Break
e|---------------------|
B|---------------------|
G|---------------------|
D|------------12----12-| x2
A|---10h12h14----10----|
E|-0-------------------|

e|-------------------------------------------|
B|-------------------------------------------|
G|----------------------------------------12-|
D|------------12--------------12-11h12h14----|
A|---10h12h14--------10h12h14----------------|
E|-0---------------0-------------------------|

e|----------------------------------------------|
B|----------------------------------------------|
G|----------------------------------------12-12-|
D|------------12--------------12-11h12h14-------|
A|---10h12h14--------10h12h14-------------------|
E|-0---------------0----------------------------|

Verse 3
e|---------------------------------|
B|---------------------------------|
G|---------------------------------|
D|---------------------------------| 
A|-----------------7-7-7-7---------|
E|---------------------------------|

e|---------------------------------|
B|---------------------------------|
G|---------------------------------|
D|---------------------------------| 
A|-----------------7-7-7-7-7-7-7-7-|
E|---------------------------------|

e|---------------------------------|
B|---------------------------------|
G|---------------------------------|
D|---------------------------------| x2
A|-7-7-7-7-7-7-7-7-7-7-7-7-7-7-7-7-|
E|---------------------------------|

Main Riff
e|----------------------|
B|----------------------|
G|---9-7---7------------|
D|-------9---9-7h9p7----| x12
A|-7-----------------10-|
E|----------------------|

Outro
e|-------------------------------------------|
B|-------------------------------------------|
G|----------------------------------------12-|
D|------------12--------------12-11h12h14----|
A|---10h12h14--------10h12h14----------------|
E|-0---------------0-------------------------|

e|----------------------------------------------|
B|----------------------------------------------|
G|----------------------------------------12-12-|
D|------------12--------------12-11h12h14-------|
A|---10h12h14--------10h12h14-------------------|
E|-0---------------0----------------------------|
Tap to rate this tab
 
# A B C D E F G H I J K L M N O P Q R S T U V W X Y Z