Song name
# A B C D E F G H I J K L M N O P Q R S T U V W X Y Z

King Charles - Love Lust tab

Legend:

~ = Hold note (slight vibrato ad lib)
/// = Tremolo-pick

Intro/Chorus (A cappella)

Lyrics

Never let a woman go, even when you know
She can always be replaced, she can always be replaced.
Oh, lust only grows, like anger, and revenge
or beauty comes and goes, but love stays until the end.

Piano Enters (arr. for Guitar)
e|---------------------------------|
B|---------------------------------|
G|---9---9---9---9---9---9---9---9-|
D|---------------------------------|
A|-7---7---7---7---7---7---7---7---|
E|---------------------------------|

Chorus (Piano arr. for Guitar)
e|---------------------------------|---------------------------------|
B|---------------------------------|---------------------------------|
G|---9---9---9---9---9---9---9---9-|---6---6---6---6---4---4---4---4-|
D|---------------------------------|---------------------------------|
A|-7---7---7---7---7---7---7---7---|-4---4---4---4---2---2---2---2---|
E|---------------------------------|---------------------------------|

e|---------------------------------|---------------------------------|
B|---------------------------------|---------------------------------|
G|---9---9---9---9---9---9---9---9-|---6---6---6---6---4---4---4---4-|
D|---------------------------------|---------------------------------|
A|-7---7---7---7---7---7---7---7---|-4---4---4---4---2---2---2---2---|
E|---------------------------------|---------------------------------|

e|---------------------------------|---------------------------------|
B|---------------------------------|---------------------------------|
G|---9---9---9---9---9---9---9---9-|---6---6---6---6---4---4---4---4-|
D|---------------------------------|---------------------------------|
A|-7---7---7---7---7---7---7---7---|-4---4---4---4---2---2---2---2---|
E|---------------------------------|---------------------------------|

Lyrics

Never let a woman go, even when you know
She can always be replaced, she can always be replaced.
Oh, lust only grows, like anger, and revenge
or beauty comes and goes, but love stays until the end.


Verse (Piano arr. for Guitar)
e|---------------------------------|---------------------------------|
B|---------------------------------|---------------------------------|
G|---9---9---9---9---9---9---9---9-|---6---6---6---6---4---4---4---4-|
D|---------------------------------|---------------------------------|
A|-7---7---7---7---7---7---7---7---|-4---4---4---4---2---2---2---2---|
E|---------------------------------|---------------------------------|

e|---------------------------------|---------------------------------|
B|---------------------------------|---------------------------------|
G|---9---9---9---9---9---9---9---9-|---6---6---6---6---4---4---4---4-|
D|---------------------------------|---------------------------------|
A|-7---7---7---7---7---7---7---7---|-4---4---4---4---2---2---2---2---|
E|---------------------------------|---------------------------------|

Lyrics

I wrote you a song Mississippi Isabel,
I even sent you flowers when you fell ill.
You've the strength of the Greeks, you are God's masterpiece
Your every triumph, every victory, I believe in every breath you breathe.

Guitar Enters
e|---------------------------------|
B|---------------------------------|
G|-------9-------9-------9-------9-|
D|---6-------6-------6-------6-----|
A|-7---7---7---7---7---7---7---7---|
E|---------------------------------|

Verse 2
e|---------------------------------|---------------------------------|
B|---------------------------------|---------------------------------|
G|-------9-------9-------9-------9-|---6---6---6---6---4---4---4---4-|
D|---6-------6-------6-------6-----|---------------------------------|
A|-7---7---7---7---7---7---7---7---|-4---4---4---4---2---2---2---2---|
E|---------------------------------|---------------------------------|

e|---------------------------------|---------------------------------|
B|---------------------------------|---------------------------------|
G|-------9-------9-------9-------9-|---6---6---6---6---4---4---4---4-|
D|---6-------6-------6-------6-----|---------------------------------|
A|-7---7---7---7---7---7---7---7---|-4---4---4---4---2---2---2---2---|
E|---------------------------------|---------------------------------|

Lyrics

And I always imagined you'd be by my side,
whether I'm hiding in the City, or I'm tearing through the wild
You're only a yoke, a noose on my throat,
If your beauty is a fortress, then my love shall be the moat.

Pre-Chorus
e|---------------------------------|---------------------------------|
B|---------------------------------|---------------------------------|
G|-------9-------9-------9-------9-|---6---6---6---6---4---4---4---4-|
D|---6-------6-------6-------6-----|---------------------------------|
A|-7---7---7---7---7---7---7---7---|-4---4---4---4---2---2---2---2---|
E|---------------------------------|---------------------------------|

e|---------------------------------|---------------------------------|
B|---------------------------------|---------------------------------|
G|-------9-------9-------9-------9-|---6---6---6---6---4---4---4---4-|
D|---6-------6-------6-------6-----|---------------------------------|
A|-7---7---7---7---7---7---7---7---|-4---4---4---4---2---2---2---2---|
E|---------------------------------|---------------------------------|

e|---------------------------------|---------------------------------|
B|---------------------------------|---------------------------------|
G|-------9-------9-------9-------9-|---6---6---6---6---4---4---4---4-|
D|---6-------6-------6-------6-----|---------------------------------|
A|-7---7---7---7---7---7---7---7---|-4---4---4---4---2---2---2---2---|
E|---------------------------------|---------------------------------|

Lyrics

I'll fall in love with her, fall in love with you, I must
I'll consume every part of you to indulge my love lust.

Chorus
e|---------------------------------|---------------------------------|
B|---------------------------------|---------------------------------|
G|-------9-------9-------9-------9-|---6---6---6---6---4---4---4---4-|
D|---6-------6-------6-------6-----|---------------------------------|
A|-7---7---7---7---7---7---7---7---|-4---4---4---4---2---2---2---2---|
E|---------------------------------|---------------------------------|

e|---------------------------------|---------------------------------|
B|---------------------------------|---------------------------------|
G|-------9-------9-------9-------9-|---6---6---6---6---4---4---4---4-|
D|---6-------6-------6-------6-----|---------------------------------|
A|-7---7---7---7---7---7---7---7---|-4---4---4---4---2---2---2---2---|
E|---------------------------------|---------------------------------|

Lyrics

Never let a woman go, even when you know
She can always be replaced, she can always be replaced.
Oh, lust only grows, like anger, and revenge
or beauty comes and goes, but love stays until the end.

Lead Guitar
e|-------------------------------------|
B|-------------------------------------|
G|-9-11-8-9-11----8-9----8-9~~-8-------|
D|-------------11-----11----------11-9-| x3
A|-------------------------------------|
E|-------------------------------------|

e|------------------------------------------|
B|------------------------------------------|
G|-9-11-8-9-11----8-9----8-9-11-13-14-13----|
D|-------------11-----11-----------------14-|
A|------------------------------------------|
E|------------------------------------------|

e|--------------------------------------------------|
B|--------------------------------------------------|
G|-9~-9-11-13~-9-13-11-9---9~-9-11-13~-13~-9-9-11-9-|
D|--------------------------------------------------| x3
A|--------------------------------------------------|
E|--------------------------------------------------|

e|-------------------------------------------------|
B|-----------------------10////-9////-12////-9////-|
G|-9~-9-11-13~-9-13-11-9---------------------------|
D|-------------------------------------------------|
A|-------------------------------------------------|
E|-------------------------------------------------|

Key Change (Piano arr. for Guitar)
e|---------------------------------|---------------------------------|
B|---------------------------------|---------------------------------|
G|---------------------------------|---------------------------------|
D|---9---9---9---9---9---9---9---9-|---6---6---6---6---4---4---4---4-|
A|---------------------------------|---------------------------------|
E|-7---7---7---7---7---7---7---7---|-4---4---4---4---2---2---2---2---|

Lyrics

Never let a woman go, even when you know...

Lead Guitar 2
e|----14-12-12-11----------------|
B|-12-------------14-12-14/16-12-|
G|-------------------------------|
D|-------------------------------| x4
A|-------------------------------|
E|-------------------------------|

Verse 3 (Piano arr. for Guitar)
e|---------------------------------|---------------------------------|
B|---------------------------------|---------------------------------|
G|---------------------------------|---------------------------------|
D|---9---9---9---9---9---9---9---9-|---6---6---6---6---4---4---4---4-|
A|---------------------------------|---------------------------------|
E|-7---7---7---7---7---7---7---7---|-4---4---4---4---2---2---2---2---|

e|---------------------------------|---------------------------------|
B|---------------------------------|---------------------------------|
G|---------------------------------|---------------------------------|
D|---9---9---9---9---9---9---9---9-|---6---6---6---6---4---4---4---4-|
A|---------------------------------|---------------------------------|
E|-7---7---7---7---7---7---7---7---|-4---4---4---4---2---2---2---2---|

Lyrics

With a guitar in my hand, or a gun in my hand,
I'd give it all up for my hand in your hand
For the sun on my skin as the morning begins,
I'd die in the dark, just to feel your skin on my skin

Pre-Chorus
e|----14-12-12-11----------------|
B|-12-------------14-12-14/16-12-|
G|-------------------------------|
D|-------------------------------| x4
A|-------------------------------|
E|-------------------------------|

Chorus 2 (Piano arr. for Guitar)
e|---------------------------------|---------------------------------|
B|---------------------------------|---------------------------------|
G|---------------------------------|---------------------------------|
D|---9---9---9---9---9---9---9---9-|---6---6---6---6---4---4---4---4-|
A|---------------------------------|---------------------------------|
E|-7---7---7---7---7---7---7---7---|-4---4---4---4---2---2---2---2---|

e|---------------------------------|---------------------------------|
B|---------------------------------|---------------------------------|
G|---------------------------------|---------------------------------|
D|---9---9---9---9---9---9---9---9-|---6---6---6---6---4---4---4---4-|
A|---------------------------------|---------------------------------|
E|-7---7---7---7---7---7---7---7---|-4---4---4---4---2---2---2---2---|

Lyrics

Young love, young love, young blood
Treasure every beating heart,
That sets your soul on fire

Outro
e|---------------------------|-----------------------------------|
B|-9-------------------------|-5---------------4-----------------|
G|-9-------------------------|-6---------------4-----------------|
D|-9---let ring--------------|-6---let ring----4---let ring------|
A|-7-------------------------|-4---------------2-----------------|
E|---------------------------|-----------------------------------|


e|-------------------|---------4--------|
B|-9~--9-------------|-5----------------|
G|-9~----9-----------|-6----------------|
D|-9~----------------|-6---let ring-----|
A|-7~----------------|-4----------------|
E|-------------------|------------------|

Lyrics

Love will set your soul on fire
Love will set your soul on fire


Amazing track by the great King Charles!! LONG LIVE THE KING!!!!
Tap to rate this tab
 
# A B C D E F G H I J K L M N O P Q R S T U V W X Y Z