Song name
# A B C D E F G H I J K L M N O P Q R S T U V W X Y Z

King Creosote - Your Young Voice tab

-------------------------------------------------------------------------------
			YOUR YOUNG VOICE - King Creosote & Jon Hopkins
-------------------------------------------------------------------------------

Tabbed by: Gav

Tuning: Standard

Tab for the beautiful final track on Diamond Mine. 

The same pattern is repeated throughout & I've indicated the right-hand picking
fingers.  Also When changing to the D minor it souunds good if you hammer 
on the e-string 

t=thumb, i=index, m=middle, r=ring

     C                                Am
e|-------0-------0-------0-------0--------0-------0-------0-------0----------|
B|-------1-------1-------1-------1--------1-------1-------1-------1----------|
G|---0-------0-------0-------0--------2-------2-------2-------2--------------|
D|-----2-------2-------2-------2--------2-------2-------2-------2------------|
A|-3-------3-------3-------3--------0-------0-------0-------0----------------|
E|---------------------------------------------------------------------------|
   t i t r t i t r
         m       m

     Dm                                G
e|--------1-------1-------1-------1---------3-------3-------3-------3--------|
B|--------3-------3-------3-------3---------0-------0-------0-------0--------|
G|----2-------2-------2-------2---------0-------0-------0-------0------------|
D|------0-------0-------0-------0---------0-------0-------0-------0----------|
A|--0-------0-------0-------0------------------------------------------------|
E|------------------------------------3-------3-------3-------3--------------|



************************************

| /   slide up
| \   slide down
| h   hammer-on
| p   pull-off
| ~   vibrato
| +   harmonic
| x   Mute note
| b   Bend
| pb  Pre-bend
| br  Bend release
| pbr Pre-bend release
| brb Bend release bend

************************************
Tap to rate this tab
# A B C D E F G H I J K L M N O P Q R S T U V W X Y Z