Song name
# A B C D E F G H I J K L M N O P Q R S T U V W X Y Z

King Crimson - Walking On The Air tab

Intro:

|----------------------------------------------------------------|
|-10--10----9(9)--9h10p9(9)--------------------------------------|
|-11----11----------------11(11)-9h11p9-----9(9)--9--9--9--------|
|-11------11---------------------------11\9-9(9)--11-11-9--9--9--|
|-9--------------------------------------------------------11-11-|
|----------------------------------------------------------------|

Verso:

                    F#5   
Close your eyes and look at me
                           E
I'll be stading by your side
                F#5
In between the deep blue sea
                     E
And the sheltering sky
              F#5
If we find no words to say
                      E
To the rhythm of the waves

Then will both surrender there       you're walkin on the air
|------------------------------------------------------------|
|---------------5---5---5---5---5---5------5---5-------------|
|---------------5---5---5---5---5---5------5---5-------------|
|---------------4---4---5---5---7---7------6---6-------------|
|------------------------------------------------------------|

Coro:

        and the worries...
|----------------------------------------------|
|----------------------------------------------|
|--1---1-------1---1-------1---1-------1---1---|
|-2---2---2---1---1---1---2---2---2---2---2---2|X2
|2---2---2---2---2---2---4---4---4---3---3---3-|
|----------------------------------------------|
|----------------------------------------------|

                   F#5     A
You don't have to hurry
                      E
You don't have to try

You don't have a care

                      you're walkin on the air
|---------------------------------------------|
|5---5---5---5---5---5------5---5-------------|
|5---5---5---5---5---5------5---5-------------|
|4---4---5---5---7---7------6---6-------------|
|---------------------------------------------|

 Bridge: E

|--------------------------------------------|
|--------------------------------------------|
|-------------------------------10/12-10-----|
|-11p9h11--13p11h13--11p9h11---9--------12-9-|
|--------------------------------------------|
|--------------------------------------------|


                      you're walkin on the air
|---------------------------------------------|
|5---5---5---5---5---5------5---5-------------|
|5---5---5---5---5---5------5---5-------------|
|4---4---5---5---7---7------6---6-------------|
|---------------------------------------------|


Coro:

        and the worries...
|----------------------------------------------|
|----------------------------------------------|
|--1---1-------1---1-------1---1-------1---1---|
|-2---2---2---1---1---1---2---2---2---2---2---2|X2
|2---2---2---2---2---2---4---4---4---3---3---3-|
|----------------------------------------------|
|----------------------------------------------|


                      you're walkin on the air
|---------------------------------------------|
|5---5---5---5---5---5------5---5-------------|
|5---5---5---5---5---5------5---5-------------|
|4---4---5---5---7---7------6---6-------------|
|---------------------------------------------|


Dedicada a la banda de Inst Karma, a ese buen Kurt, Otto, Villalon, see al borrega tambien, jaja.

Paz, Amor y Empatia.

ATTE: El buen Elmo.
Tap to rate this tab
# A B C D E F G H I J K L M N O P Q R S T U V W X Y Z