Song name
# A B C D E F G H I J K L M N O P Q R S T U V W X Y Z

King Crimson - Sheltering Sky tab

Artist:     King Crimson
Song:       The Sheltering Sky
Album:      Discipline
Tabbed by:  Wiktor R. Kolowiecki
E-mail:     variat11@gmail.com

---------------------------------------------------------


Riff 1:
E|-----------------|
B|-3-3-3-3-2-2-0-0-|
G|-4-4-4-4-3-3-1-1-|
D|-5-5-5-5-4-4-2-2-|
A|-----------------|
E|-----------------|
                       ---> These two riffs are going
Riff 2:                     alternately, through the
E|---------2-2-0-0-|         whole song, except bridge
B|-3-3-3-3-2-2-0-0-|
G|-4-4-4-4-3-3-1-1-|
D|-5-5-5-5-4-4-2-2-|
A|-----------------|
E|-----------------|

Main theme:

E|-------14-12---------------14-12---------------|
B|-12-14-------12------12-14-------12------14----|
G|----------------11------------------11------12-|
D|-----------------------------------------------| x2
A|-----------------------------------------------|
E|-----------------------------------------------|

[no patience to tab the variations which goes next]

,then comes the bridge with bass line chords:

Em          F# G

(these chords stays for the rest of the song, even after return of the
main riff and theme)

-------------------------------------------------------------------------

                                                     Lublin, Poland
                                                           30.08.08
Tap to rate this tab
 
# A B C D E F G H I J K L M N O P Q R S T U V W X Y Z