Song name
# A B C D E F G H I J K L M N O P Q R S T U V W X Y Z

King Crimson - Elephant Talk tab

Alright, well this is the solo I couldn't find tabbed out online, and you
can't play a song this cool and just skip the solo, so here it is. It is as
correct as I had the time to make it, so use this just to get an idea of
where it's at. It starts around 3:30ish, ends about 4:00.


                           (harmonic)
e|-----------------------------------------------------|
B|-----------------------------------------------------|
G|--11b13--11p9----9------(11)p9h11--------------------|
D|-------------11-------------------11--14---8s9s8--9--|
A|------------------------------------14---------------|
E|-----------------------------------------------------|


e|------------------------------------19--19h21p19-17--19-17--19-19--17--|
B|-19--19h21p19p17--17------17-------------------------------------------|
G|-----------------18--18-16---18-16-------------------------------------|
D|-----------------------------------------------------------------------|
A|-----------------------------------------------------------------------|
E|-----------------------------------------------------------------------|

			/this part is probably wrong\
e|---19-17h19p17----17-------------------------------------------|
B|---------------19-----17h19p17-15h17p15-13h15-12b--------------|
G|---------------------------------------------------------------|
D|---------------------------------------------------------------|
A|---------------------------------------------------------------|
E|---------------------------------------------------------------|


e|---------------------------------------------------------------|
B|--12b-12b-12b-12b-12b-12b-12b-11h12p11--12---12p11----12p11----|
G|--------------------------------------------------13~------11~-|
D|---------------------------------------------------------------|
A|---------------------------------------------------------------|
E|---------------------------------------------------------------|


Then after that it does a crazy I guess elephant-sounding distortion that I
don't know how to do. Any feedback would be great. This is my first tab, so
be nice. Or don't be. Whatever cloud you're on.
Tap to rate this tab
 
# A B C D E F G H I J K L M N O P Q R S T U V W X Y Z