Song name
# A B C D E F G H I J K L M N O P Q R S T U V W X Y Z

King Crimson - Easy Money tab

-------------------------------------------------------------------------------
			     EASY MONEY -- King Crimson
-------------------------------------------------------------------------------
Email: threeofaperfectpair247@gmail.com

Tuning: Standard

Listen to record for tempo and timing.


Opening Riff:
e|-12-12-12-12-12-12-12-12-12-7--5--7---12-12-12-12-12-12-12-12-7--5--------|
B|-12-12-12-12-12-12-12-12-12-8--7--8---12-12-12-12-12-12-12-12-8--7--------|
G|----------------------------------------------------------------------X12-|
D|--------------------------------------------------------------------------|
A|--------------------------------------------------------------------------|
E|--------------------------------------------------------------------------|

Verse One:
e|-7----7-7---5---5--5--------7------7-7------------------------------------|
B|-8-x7-8-8---5---5--5--------8-x12--8-8------------------------------------|
G|-0----0-0---2---------0-----0------0-0------------------------------------|
D|--------------------------------------------------------------------------|
A|--------------------------------------------------------------------------|
E|--------------------------------------------------------------------------|

Chorus:
e|--------------------------------------------------------------------------|
B|--------------------------------------------------------------------------|
G|--------------------------------------------------------------------------|
D|--2----1----3-------------------------------------------------------------|
A|-------2----4----4--------------------------------------------------------|
E|-----------------5--------------------------------------------------------|

Verse Two:
e|---------------7--------------------7--5---5-----3-7-14-12-7--------------|
B|-0-1-2-----3-3-8-X4--0-1-2-----3-3--8----------2-------------3---0-1-2----|
G|---------------7--------------------7----2--------------------------------|
D|-------2-------------------2-2-----------------------------------------2--|
A|--------------------------------------------------------------------------|
E|--------------------------------------------------------------------------|

e|--------7-------3---------------------------------------------------------|
B|---3-3--8-x8--0-5---------------------------------------------------------|
G|--------7-----------------------------------------------------------------|
D|-2------------------------------------------------------------------------|
A|--------------------------------------------------------------------------|
E|--------------------------------------------------------------------------|

Verse Three:
e|--------------------------------------------------------------------------|
B|-0---0---0---0--0---------------------------------------------------------|
G|-0---0---0---0--0-0---0---0---0-------------------------------------------|
D|---4---4---4--------4---4---4---------------------------------------------|
A|--------------------------------------------------------------------------|
E|--------------------------------------------------------------------------|

With the occasional:
e|-0----------------------------------|
B|-0----------------------------------|
G|-0----------------------------------|
D|------------------------------------|
A|------------------------------------|
E|------------------------------------|

I don't have the rest yet, but I will add it to this tab.

Order:
Intro
Verse One
Chorus
Verse Two
Chorus
Solo
Bridge
Verse Three
Chorus










Tap to rate this tab
 
# A B C D E F G H I J K L M N O P Q R S T U V W X Y Z