Song name
# A B C D E F G H I J K L M N O P Q R S T U V W X Y Z

King Crimson - Moonchild tab

MOONCHILD
Album: In The Court of the Crimson King (1969)


Verse
-----

e:-------0----|-------0----|-------0----|-------0----|
B:-------1----|-------1----|-------1----|-------1----|
G:------------|----0-------|------------|------------|
D:----2-------|------------|----4-------|----3-------|
A:-0----------|-0----------|-0----------|------------|
E:------------|------------|------------|-4----------|


Chorus
------

e:-------1----|-------3----|--5--3--0---|------------|
B:-------3----|-------5----|--5--3--1---|------------|
G:----2-------|----4-------|--5--4--2---|------------|
D:-0----------|-2----------|--7--5--2---|------------|
A:------------|------------|--7--5--0---|------------|
E:------------|------------|--5--3------|------------|

e:-------1----|-------3----|------------|------------|
B:-------3----|-------5----|--1---------|------------|
G:----2-------|----4-------|--2---------|------------|
D:-0----------|-2----------|--2---------|------------|
A:------------|------------|--0---------|------------|
E:------------|------------|-----1------|------------|

e:-------1----|-------3----|--5--3--0---|------------|
B:-------3----|-------5----|--5--3--1---|------------|
G:----2-------|----4-------|--5--4--2---|------------|
D:-0----------|-2----------|--7--5--2---|------------|
A:------------|------------|--7--5--0---|------------|
E:------------|------------|--5--3------|------------|


e:-------1----|-------3----|------------|------------|
B:-------3----|-------5----|--1---------|------------|
G:----2-------|----4-------|--2---------|------------|
D:-0----------|-2----------|--2---------|------------|
A:------------|------------|-----0------|------------|
E:------------|------------|--1---------|------------|

Tap to rate this tab
# A B C D E F G H I J K L M N O P Q R S T U V W X Y Z