Song name
# A B C D E F G H I J K L M N O P Q R S T U V W X Y Z

King Crimson - I Talk To The Wind tab

-------------------------------------------------------------------------------
                           I TALK TO THE WIND - King Crimson
-------------------------------------------------------------------------------
Tabbed by: Emilym80
E-mail: Emilym80@hotmail.com

Tuning:
From the 1969 album "In the Court of the Crimson King".
The guitar only plays during the chorus and an
interlude/solo.
Guitar by Robert Fripp

First chorus:
e|--------------------------------------------------------------------------|
B|-14----------------------14-----------------------------------------------|
G|----16-14-------------------16-14-----------------------------------------|
D|----------16-14-------------------16\14----16\14-13----16\14-13-----------|
A|----------------16\14-x3----------------12----------12--------------------|
E|--------------------------------------------------------------------------|
Second chorus: Same as the first, but play only the three
repetitions, guitar is then tacet.
Third chorus:
e|--------------------------------------7+----------------------------------|
B|-14----------------------14---------7+------------------------------------|
G|----16-14-------------------16-7+-7+--------------------------------------|
D|----------16-14------------------------------16\14-13----14b16------------|
A|----------------16\14-x2------------------12----------12------------------|
E|--------------------------------------------------------------------------|

Interlude/solo:
e|--------------------------------------------------------------------------|
B|--------------------------------------------------------------------------|
G|-14\13---------------------------16/19-------------------14\13------------|
D|------------12/14-14-17-17/21-21------16-16/19-19-21-19-------------------|
A|------14-14----------------------------------------------------14-14------|
E|--------------------------------------------------------------------------|

Interlude/solo continued:
e|--------------------------------------------------------------------------|
B|--------------------------------------------------------------------------|
G|-7/9-9-12-9-16-19\16-16\12-12p11-12p11-12p11-12p11-12p11-12p11-12p11------|
D|--------------------------------------------------------------------------|
A|--------------------------------------------------------------------------|
E|--------------------------------------------------------------------------|

Fourth chorus:
e|--------------------------------------------------------------------------|
B|-14----------------------14-----------------------------------------------|
G|----16-14-------------------16-14-----------------------------------------|
D|----------16-14------------------------16\14-13----16\14-13---------------|
A|----------------16\14-x2------------12----------12------------------------|
E|--------------------------------------------------------------------------|

And that's it. Feel free to email me with requests, etc.
Thanks
************************************

| /   slide up
| \   slide down
| h   hammer-on
| p   pull-off
| ~   vibrato
| +   harmonic
| x   Mute note
| b   Bend
| pb  Pre-bend
| br  Bend release
| pbr Pre-bend release
| brb Bend release bend

************************************
Tap to rate this tab
# A B C D E F G H I J K L M N O P Q R S T U V W X Y Z