Song name
# A B C D E F G H I J K L M N O P Q R S T U V W X Y Z

King Crimson - Red tab

Tablature du titre "RED" du groupe KING CRIMSON, tiré de l'album éponyme "RED", paru en 1974.
Composé par Robert Fripp.

Arrangement pour la piste de guitare principale. accordage standard. A jouer avec 
saturation bien etendu, idealement avec une pédale de fuzz)


INTRO (Mélodie à jouer en position micro manche ou grave)

---------------------------------15-17-19--------|
--------------------13-15-17--19-----------------|
-----------13-14--16-----------------------------|
-13--15-16---------------------------------------|
-------------------------------------------------|
-------------------------------------------------|


-------------------------------10-12-14----------|
-------------------9-11-12--14-------------------|
----------9-10--12-------------------------------|
-9--11-12----------------------------------------|
-------------------------------------------------|
-------------------------------------------------|


----------------------------------15-17-17b(18)--|
--------------------13-15-17--19-----------------|
-----------13-14--16-----------------------------|
-13--15-16---------------------------------------|
-------------------------------------------------|
-------------------------------------------------|

RIFF PRINCIPAL (jouer en position micro chevalet ou aigue jusqu'à l'outro)

----------------------------------|
-3-1-3-1-3-1-3--1--3b(4)r3--1-----|
-3-1-3-1-3-1-3--1--3b(4)r3--1-----|  x2
------------------------------2---|
----------------------------------|
--------------------------------0-|


----------------------------------|
-5-3-5-3-5-3-5--3--5b(6)r5--3-----|
-5-3-5-3-5-3-5--3--5b(6)r5--3-----|
------------------------------4---|
----------------------------------|
----------------------------------|


----------------------------------|
-3-1-3-1-3-1-3--1--3b(4)r3--1-----|
-3-1-3-1-3-1-3--1--3b(4)r3--1-----|
------------------------------2---|
----------------------------------|
--------------------------------0-|


----------------------------------|
-6-4-6-4-6-4-6--4--6b(7)r6--4-----|
-6-4-6-4-6-4-6--4--6b(7)r6--4-----|  x2
------------------------------5---|
----------------------------------|
----------------------------------|


----------------------------------|
-3-1-3-1-3-1-3--1--3b(4)r3--1-----|
-3-1-3-1-3-1-3--1--3b(4)r3--1-----|
------------------------------2---|
----------------------------------|
--------------------------------0-|

CHORUS

------------------0-0-------------0-0------------|
-9-8-9-8-9-8-9-8--0-0---------16--0-0---------16-|
-9-8-9-8-9-8-9-8--1-1/13----13----1-1/13----13---|
------------------2-2/14--14------2-2/14--14-----|
-------------------------------------------------|
-------------------------------------------------|


------------------0-0-------------|
-9-8-9-8-9-8-9-8--0-0---------16--|
-9-8-9-8-9-8-9-8--1-1/13----13----|
------------------2-2/14--14------|
----------------------------------|
----------------------------------|


-0--0----5--5----10-10-10-10-10-10----10-10-10-10-10-10-|
-0--0----5--5----10-10-10-10-10-10----10-10-10-10-10-10-|
-4--4----7--7----12-12-12-12-12-12----12-12-12-12-12-12-|
-4--4----7--7----12-12-12-12-12-12----10-10-10-10-10-10-|
-2--2----5--5----10-10-10-10-10-10----10-10-10-10-10-10-|
--------------------------------------------------------|


RIFF PRINCIPAL

----------------------------------|
-3-1-3-1-3-1-3--1--3b(4)r3--1-----|
-3-1-3-1-3-1-3--1--3b(4)r3--1-----|  x2
------------------------------2---|
----------------------------------|
--------------------------------0-|


----------------------------------|
-5-3-5-3-5-3-5--3--5b(6)r5--3-----|
-5-3-5-3-5-3-5--3--5b(6)r5--3-----|
------------------------------4---|
----------------------------------|
----------------------------------|


----------------------------------|
-3-1-3-1-3-1-3--1--3b(4)r3--1-----|
-3-1-3-1-3-1-3--1--3b(4)r3--1-----|
------------------------------2---|
----------------------------------|
--------------------------------0-|

CHORUS

------------------0-0-------------0-0------------|
-9-8-9-8-9-8-9-8--0-0---------16--0-0---------16-|
-9-8-9-8-9-8-9-8--1-1/13----13----1-1/13----13---|
------------------2-2/14--14------2-2/14--14-----|
-------------------------------------------------|
-------------------------------------------------|


------------------0-0-------------|
-9-8-9-8-9-8-9-8--0-0---------16--|
-9-8-9-8-9-8-9-8--1-1/13----13----|
------------------2-2/14--14------|
----------------------------------|
----------------------------------|


-0--0----5--5----10-10-10-10-10-10----10-10-10-10-10-10-|
-0--0----5--5----10-10-10-10-10-10----10-10-10-10-10-10-|
-4--4----7--7----12-12-12-12-12-12----12-12-12-12-12-12-|
-4--4----7--7----12-12-12-12-12-12----10-10-10-10-10-10-|
-2--2----5--5----10-10-10-10-10-10----10-10-10-10-10-10-|
--------------------------------------------------------|

PONT

-------------------------------------------------------|
-------------------------------------------------------|
-------------------3-2-3-2-3-2-3-2---6-4-6-4-6-4-6-4/6-|
-5-4-5-4-5-4-5-4---5-4-5-4-5-4-5-4---7-5-7-5-7-5-7-5/7-|
-7-6-7-6-7-6-7-6---------------------------------------|
-------------------------------------------------------|


-------------------------------------------------|
-X-3-X-3-X-3-X-3-X-3-X-3-X-3-X-3-X-3-X-3-X-3-X-3-|
-X-3-X-3-X-3-X-3-X-3-X-3-X-3-X-3-X-3-X-3-X-3-X-3-|
-------------------------------------------------|
-------------------------------------------------|
-------------------------------------------------|


-------------------------------------------------------------|
-------------------------------------------------------------|
-------------------------------------------------------------|
-------------------------------------------------------------|
-------1-0---------1-0-------4-4-2---------4-2---2-0---2-5-7-|
-3-0-1-----1-3-0-1-----1-3-4-------0-0-3-4-----0-----0-------|


----------------------------------------------------------------|
----------------------------------------------------------------|
----------------------------------------------------------------|
----------------------------------------------------------------|
-------1-0---------5-7-8-8-10-4-4-2---------4-2---2-0---2-5-7-7-|
-3-0-1-----1-3-0-1------------------0-0-3-4-----0-----0---------|

RIFF PRINCIPAL

----------------------------------|
-3-1-3-1-3-1-3--1--3b(4)r3--1-----|
-3-1-3-1-3-1-3--1--3b(4)r3--1-----|  x2
------------------------------2---|
----------------------------------|
--------------------------------0-|


----------------------------------|
-5-3-5-3-5-3-5--3--5b(6)r5--3-----|
-5-3-5-3-5-3-5--3--5b(6)r5--3-----|
------------------------------4---|
----------------------------------|
----------------------------------|


----------------------------------|
-3-1-3-1-3-1-3--1--3b(4)r3--1-----|
-3-1-3-1-3-1-3--1--3b(4)r3--1-----|
------------------------------2---|
----------------------------------|
--------------------------------0-|

CHORUS

------------------0-0-------------0-0------------|
-9-8-9-8-9-8-9-8--0-0---------16--0-0---------16-|
-9-8-9-8-9-8-9-8--1-1/13----13----1-1/13----13---|
------------------2-2/14--14------2-2/14--14-----|
-------------------------------------------------|
-------------------------------------------------|


------------------0-0-------------|
-9-8-9-8-9-8-9-8--0-0---------16--|
-9-8-9-8-9-8-9-8--1-1/13----13----|
------------------2-2/14--14------|
----------------------------------|
----------------------------------|


-0--0----5--5----10-10-10-10-10-10----10-10-10-10-10-10-|
-0--0----5--5----10-10-10-10-10-10----10-10-10-10-10-10-|
-4--4----7--7----12-12-12-12-12-12----12-12-12-12-12-12-|
-4--4----7--7----12-12-12-12-12-12----10-10-10-10-10-10-|
-2--2----5--5----10-10-10-10-10-10----10-10-10-10-10-10-|
--------------------------------------------------------|

PONT

-------------------------------------------------------|
-------------------------------------------------------|
-------------------3-2-3-2-3-2-3-2---6-4-6-4-6-4-6-4/6-|
-5-4-5-4-5-4-5-4---5-4-5-4-5-4-5-4---7-5-7-5-7-5-7-5/7-|
-7-6-7-6-7-6-7-6---------------------------------------|
-------------------------------------------------------|

oUTRO (identique à l'intro, revenir sur la position micro manche)

--------------------------------15-17-19---------|
--------------------13-15-17--19-----------------|
----------13-14--16------------------------------|
-13-15-16----------------------------------------|
-------------------------------------------------|
-------------------------------------------------|


------------------------------------------------|
---------------------------------15-17-19-------|
-----------------12-13-15-16--18----------------|
-------12-14-15---------------------------------|
-14-16------------------------------------------|
------------------------------------------------|


---------------------------------15-17-17b(18)--|
--------------------13-15-17--19----------------|
----------13-14--16-----------------------------|
-13-15-16---------------------------------------|
------------------------------------------------|
------------------------------------------------|

LEXIQUE :

17b(18) : faire un tiré d'1/2 ton en partant de la 17eme frette

3b(4)r3 : faire un tiré d'1/2 ton en partant de la 3eme frette puis relaché le tiré pour 
revenir à la 3eme frette (ne gratter qu'une fois les cordes)

2/14 : faire un slide (glissé) de la 2eme frette à la 14eme (ne gratter qu'une fois les cordes)
Tap to rate this tab
# A B C D E F G H I J K L M N O P Q R S T U V W X Y Z