Song name
# A B C D E F G H I J K L M N O P Q R S T U V W X Y Z

King Crimson - One Time tab

Help us improve GuitareTab! Take a short survey!
t. See http://www.olga.net/faq/ for more information.                     #
#-----------------------------------------------------------------------------#

From: "Jorge Landa" 
Subject: k/king_crimson/one_time.tab
Date: Mon, 24 May 1999 22:09:12 PDT

Song One Time
By King Crimson
From the album Vrooom

Here is the King Crimson's song One Time

Once you've learned the patterns it's easy to play and very funny, this is 
the way I play it but tou can change the fingering position to make it 
easier or hardest (as you wish)

This song is played in 3/4
Standard tunning

|       |       |        |       |       |
|------------8-------8---|11------11--13------13--|
|8-------8---------------|------------------------|
|------------------------|------------------------|
|10----------------------|------------------------|
|------------------------|------------------------|
|------------------------|------------------------|

|       |       |        |       |       |
|------------------------|10------10--11------11--|
|------------8-------8---|------------------------|
|------------------------|------------------------|
|10----------------------|------------------------|
|------------------------|------------------------|
|------------------------|------------------------|

|       |       |        |       |       |
|------------------------|8-------8---10------10--|
|------------------------|------------------------|
|------------10------10--|------------------------|
|------------------------|------------------------|
|11----------------------|------------------------|
|------------------------|------------------------|

|       |       |        |       |       |
|------------------------|10------10--11------11--|
|------------8-------8---|------------------------|
|------------------------|------------------------|
|------------------------|------------------------|
|8-----------------------|------------------------|
|------------------------|------------------------|

3rd time repeat 3 times and end with

|---8----8---------------|
|---8----8---------------|
|------------------------|
|---10---10--------------|
|------------------------|
|------------------------|

Intro Verse
|       |       |        |       |       |
|------------------------|------------------------|
|------------------------|------------------------|
|------------------------|------------------------|
|------------------------|------------------------|
|------------------------|------------------------|
|3-3-3-3-3-3-3---3-------|3-3-3-3-3-3-3---3-------|
This arrange of play G on the 6th. String will be called Fill 1

|       |       |        |       |       |
|------------------------|------------------------|
|------------------------|------------------------|
|------------------------|------------------------|
|------------------------|------------------------|
|------------------------|------------------------|
|3-3-3-3-3-3-3---3-------|3-3-3-3-3-3-3---3-------|

|       |       |        |       |       |
|------------------------|------------------------|
|------------------------|------------------------|
|------------------------|------------------------|
|------------------------|------------------------|
|------------------------|------------------------|
|3-3-3-3-3-3-3---3-------|3-3-3-3-3-3-3---3-------|

Verse
|       |       |        |       |       |
|------------------------|------------1-----------|
|------------------------|----------------4-------|
|------------------------|-----------------5------|
|------------------------|------------------------|
|------------------------|------------------------|
|3-3-3-3-3-3-3---3-------|3-3-3-3-3-3-3---3-------|

|       |       |        |       |       |
|------------------------|------------1-----------|
|------------------------|---------------------3--|
|------------------------|---------------------3--|
|------------------------|------------------------|
|------------------------|------------------------|
|------------------------|------------------------|

|       |       |        |       |       |
|------------------------|------------1-----------|
|------------------------|--------------------4---|
|------------------------|--------------------5---|
|------------------------|------------------------|
|------------------------|------------------------|
|------------------------|------------------------|

|       |       |        |       |       |
|------------------------|-------------1----------|
|------------------------|--------------------3---|
|------------------------|--------------------3---|
|------------------------|------------------------|
|------------------------|------------------------|
|------------------------|------------------------|

|       |       |        |       |       |
|------------------------|------------------------|
|------------------------|-------------4------1---|
|------------------------|--------------------1---|
|------------------------|------------------------|
|------------------------|------------------------|
|------------------------|------------------------|

|       |       |        |       |       |
|------------------------|------------------------|
|------------------------|------------3-------3---|
|------------------------|--------------------3---|
|------------------------|------------------------|
|------------------------|------------------------|
|------------------------|------------------------|

|       |       |        |       |       |
|------------------------|------------1-----------|
|------------------------|--------------------4---|
|------------------------|--------------------5---|
|------------------------|------------------------|
|------------------------|------------------------|
|------------------------|------------------------|

|       |       |        |       |       |
|------------------------|-------------1----------|
|------------------------|--------------------3---|
|------------------------|--------------------3---|
|------------------------|------------------------|
|------------------------|------------------------|
|------------------------|------------------------|



|       |       |        |       |       |
|------------------------|------------1-----------|
|------------------------|--------------------4---|
|------------------------|--------------------5---|
|------------------------|------------------------|
|------------------------|------------------------|
|------------------------|------------------------|

|       |       |        |       |       |
|------------------------|-----------1------------|
|------------------------|--------------------3---|
|------------------------|--------------------3---|
|------------------------|------------------------|
|------------------------|------------------------|
|------------------------|------------------------|

|       |       |        |       |       |
|------------------------|-----------1------------|
|------------------------|--------------------4---|
|------------------------|--------------------5---|
|------------------------|------------------------|
|------------------------|------------------------|
|------------------------|------------------------|

|       |       |        |       |       |
|------------------------|-----------1------------|
|------------------------|------------------------|
|------------------------|-------------------3----|
|------------------------|-------------------3----|
|------------------------|------------------------|
|------------------------|------------------------|

|       |       |        |       |       |
|------------------------|------------------------|
|------------------------|------------4--------1--|
|3-----------------------|---------------------1--|
|------------------------|------------------------|
|------------------------|------------------------|
|------------------------|------------------------|

|       |       |        |       |       |
|------------------------|------------------------|
|------------------------|--------------4-------3-|
|------------------------|----------------------3-|
|------------------------|------------------------|
|------------------------|------------------------|
|------------------------|------------------------|

chorus
|       |       |        |       |       |
|--3---------3-----------|3-----------3-----------|
|--4---------4-----------|4-----------4-----------|
|--5---------5-----------|5-----------5-----------|
|------------------------|------------------------|
|------------------------|------------------------|
|------------------------|------------------------|

|       |       |        |       |       |
|3-----------3-----------|-3----------------------|
|3-----------3-----------|-3----------------------|
|3-----------3-----------|-3----------------------|
|------------------------|------------------------|
|------------------------|------------------------|
|------------------------|------------------------|

|       |       |        |       |       |
|-3----------------------|3--------------3--------|
|-4----------------------|4--------------4--------|
|-5----------------------|5--------------5--------|
|------------------------|------------------------|
|------------------------|------------------------|
|------------------------|------------------------|

|       |       |        |       |       |
|3-----------------------|3-----------3-----------|
|3-----------------------|3-----------3-----------|
|3-----------------------|3-----------3-----------|
|------------------------|------------------------|
|------------------------|------------------------|
|------------------------|------------------------|

|       |       |        |       |       |
|1-----------------------|-------------1----------|
|1-----------------------|-------------1----------|
|1-----------------------|-------------1----------|
|------------------------|------------------------|
|------------------------|------------------------|
|------------------------|------------------------|

|       |       |        |       |       |
|----------------3-------|----------------3-------|
|----------------3-------|----------------1-------|
|----------------3-------|----------------0-------|
|------------------------|------------------------|
|------------------------|------------------------|
|------------------------|------------------------|

|       |       |        |       |       |
|------3---------1-------|----------------1-------|
|------3---------1-------|----------------1-------|
|------3-----------------|----------------1-------|
|------------------------|------------------------|
|------------------------|------------------------|
|------------------------|------------------------|

|       |       |        |       |       |
|------1---------3-------|----------------1-------|
|------1---------3-------|----------------1-------|
|------1---------3-------|----------------1-------|
|------------------------|------------------------|
|------------------------|------------------------|
|------------------------|------------------------|

|       |       |        |       |       |
|------------3-----------|-------------1----------|
|------------4-----------|--------------------3---|
|------------5-----------|--------------------3---|
|------------------------|------------------------|
|------------------------|------------------------|
|------------------------|------------------------|
				 |2nd time with fill 1______

|       |       |        |       |       |
|------------------------|------------------------|
|------------------------|------------------------|
|------------------------|------------------------|
|------------------------|------------------------|
|------------------------|------------------------|
|------------------------|------------------------|
__________________________________________________!

|       |       |        |       |       |
|--3---------------------|3-------------3---------|
|--4---------------------|4-------------4---------|
|--5---------------------|5-------------5---------|
|------------------------|------------------------|
|------------------------|------------------------|
|------------------------|------------------------|

|       |       |        |       |       |
|3-----------------------|3-----------3-----------|
|3-----------------------|3-----------3-----------|
|3-----------------------|3-----------3-----------|
|------------------------|------------------------|
|------------------------|------------------------|
|------------------------|------------------------|

|       |       |        |       |       |
|1-----------------------|-----------1------------|
|1-----------------------|-----------1------------|
|1-----------------------|-----------1------------|
|------------------------|------------------------|
|------------------------|------------------------|
|------------------------|------------------------|

|       |       |        |       |       |
|----------------3-------|----------------3-------|
|----------------3-------|----------------1-------|
|----------------3-------|----------------0-------|
|------------------------|------------------------|
|------------------------|------------------------|
|------------------------|------------------------|

|       |       |        |       |       |
|--------3---------------|----------------1-------|
|--------3---------------|----------------1-------|
|--------3---------------|----------------1-------|
|------------------------|------------------------|
|------------------------|------------------------|
|------------------------|------------------------|

|       |       |        |       |       |
|------1---------3-------|----------------1-------|
|------1---------3-------|----------------1-------|
|------1---------3-------|----------------1-------|
|------------------------|------------------------|
|------------------------|------------------------|
|------------------------|------------------------|

|       |       |        |       |       |
|------------3-----------|--------------1---------|
|------------4-----------|--------------------3---|
|------------5-----------|--------------------3---|
|------------------------|------------------------|
|------------------------|------------------------|
|------------------------|------------------------|
				 |2nd time with fill 1______

|       |       |        |       |       |
|------------------------|------------1-----------|
|------------------------|--------------------4---|
|------------------------|--------------------5---|
|------------------------|------------------------|
|------------------------|------------------------|
|------------------------|------------------------|
___________________________________________________

|       |       |        |       |       |
|------------------------|------------1-----------|
|------------------------|--------------------3---|
|------------------------|--------------------3---|
|------------------------|------------------------|
|------------------------|------------------------|
|------------------------|------------------------|
___________________________________________________

|       |       |        |       |       |
|------------------------|------------------------|
|------------------------|------------------------|
|------------------------|------------------------|
|------------------------|------------------------|
|------------------------|------------------------|
|------------------------|------------------------|
__________________________________________________|


This patterrn is repeated 2 times, the third time you're playing it you must 
end after playing the first arpeggio 3 times with the chord that's 
indicated.

Well, it was, so if you have any question or comment about King Crimson or 
it's music please e-mail me:

jorge_landa@hotmail.com

If this have served you please let me know it, "we only serve for you".
Related for One Time tab