Song name
# A B C D E F G H I J K L M N O P Q R S T U V W X Y Z

King Diamond - Two Little Girls tab

King Diamond: Two Little Girls

transcribed by:  GRAX            :  BKNYUSA@aol.com  
     edited by:  Russ Elton      :  webmaster@abysslord.com

FIND EVERY MERCYFUL FATE/KING DIAMOND SONG AND
THE MOST UPDATED VERSION OF THIS SONG AT:

                          The Tab Crypt
                  http://abysslord.com/thetabcrypt/

Date last modified:  January 20, 2003

PLEASE DO NOT COPY THIS TAB TO ANOTHER SITE
WITHOUT AUTHORS' PERMISSION.  THANK YOU.

Tuning: Standard

Arranged for guitar

Riff 1                                                         
e|-24--20-19-20--24--20-19-20--19------------19-----------|
B|---------------------------------20-19-17------20-19-17-|
G|--------------------------------------------------------|
D|--------------------------------------------------------|
A|--------------------------------------------------------|
E|--------------------------------------------------------|


Riff 2
e|-24--20-19-20--24--20-19-20--24--20-19-20--24--20-19-20-|
B|--------------------------------------------------------|
G|--------------------------------------------------------|
D|--------------------------------------------------------|
A|--------------------------------------------------------|
E|--------------------------------------------------------|


Riff 3
e|-19------------19------------19------------19-----------|
B|-----20-19-17------20-19-17------20-19-17------20-19-17-|
G|--------------------------------------------------------|
D|--------------------------------------------------------|
A|--------------------------------------------------------|
E|--------------------------------------------------------|
  "One little girl...."


Play Riff 2   "They seem to play..." 


Riff 4
e|-17-15-13----15-17---17-15-13-12-13-15-13--|
B|-------------------------------------------|
G|-------------------------------------------|
D|-------------------------------------------|
A|-------------------------------------------|
E|-------------------------------------------|
  "If only they..."


Play Riff 2
Play Riff 3   "One little girl..."
Play Riff 2   "The other looked..."
Play Riff 4   "I wish they could..."

Ending

e|-17-15----13-15-17---17-15-13-12-13-15-13--12--13--12---10-|
B|-----------------------------------------------------------|
G|-----------------------------------------------------------|
D|-----------------------------------------------------------|
A|-----------------------------------------------------------|
E|-----------------------------------------------------------|

notation:
^   =  bend [ ^ = half, ^^ = whole, etc. ]
^r  =  bend and release
x   =  mute with fret-hand
*   =  mute with palm-hand
X\\ =  pick slide
h   =  hammer-on
p   =  pull-off
~   =  vibrato
t   =  tap-on
/   =  slide up
\   =  slide down
h.  =  harmonics
ah  =  artificial harmonic
(9) =  ghost note
tm  =  trem picking
tr  =  trill
Tap to rate this tab
 
# A B C D E F G H I J K L M N O P Q R S T U V W X Y Z