Song name
# A B C D E F G H I J K L M N O P Q R S T U V W X Y Z

King Diamond - Spare This Life tab

Spare this life

Transcribed by: Lasse Kulmala

FIND EVERY MERCYFUL FATE/KING DIAMOND SONG AND
THE MOST UPDATED VERSION OF THIS SONG AT:

                          The Tab Crypt
                  http://abysslord.com/thetabcrypt/

PLEASE DO NOT COPY THIS TAB TO ANOTHER SITE
WITHOUT AUTHORS' PERMISSION.  THANK YOU.

Organ arranged to guitar

Intro
e|--------------|--------------|--------------|-22-----------|(22)----------|
B|-15-----------|(15)----------|(15)----------|(15)----------|(15)----------|
G|--------------|-----------7--|(7)-----------|(7)-----------|(7)-----------|
D|--------------|-0------------|(0)-----------|(0)-----------|(0)-----------|
A|--------------|--------------|--------------|--------------|--------------|
E|--------------|--------------|--------------|--------------|--------------|


Rhy fig. 1 (2 times)

e|-3-----1------|(1)-----------|-3-----1------|(1)-----------|--------------|--------------|
B|--------------|--------------|--------------|--------------|-5------------|-4------------|
G|--------------|--------------|--------------|--------------|--------------|--------------|
D|--------------|--------------|--------------|--------------|--------------|--------------|
A|--------------|--------------|--------------|--------------|--------------|--------------|
E|--------------|--------------|--------------|--------------|--------------|--------------|


Rhy fig. 2

e|-5-----4------|(4)-----------|-5-----4------|(4)-----------|--------------|--------------|
B|--------------|--------------|--------------|--------------|-8------------|-7------------|
G|--------------|--------------|--------------|--------------|--------------|--------------|
D|--------------|--------------|--------------|--------------|--------------|--------------|
A|--------------|--------------|--------------|--------------|--------------|--------------|
E|--------------|--------------|--------------|--------------|--------------|--------------|

e|-6-----5------|(5)-----------|-6-----5------|(5)-----------|--------------|--------------|
B|--------------|--------------|--------------|--------------|-9------------|-8------------|
G|--------------|--------------|--------------|--------------|--------------|--------------|
D|--------------|--------------|--------------|--------------|--------------|--------------|
A|--------------|--------------|--------------|--------------|--------------|--------------|
E|--------------|--------------|--------------|--------------|--------------|--------------|


Rhy fig. 3 (2 times)

e|-15----13-----|(13)----------|-15----13-----|(13)----------|--------------|--------------|
B|--------------|--------------|--------------|--------------|-17-----------|-16-----------|
G|--------------|--------------|--------------|--------------|--------------|--------------|
D|--------------|--------------|--------------|--------------|--------------|--------------|
A|--------------|--------------|--------------|--------------|--------------|--------------|
E|--------------|--------------|--------------|--------------|--------------|--------------|


Rhy fig. 4

e|-17----16-----|(16)----------|-17----16-----|(16)----------|--------------|--------------|
B|--------------|--------------|--------------|--------------|-20-----------|-19-----------|
G|--------------|--------------|--------------|--------------|--------------|--------------|
D|--------------|--------------|--------------|--------------|--------------|--------------|
A|--------------|--------------|--------------|--------------|--------------|--------------|
E|--------------|--------------|--------------|--------------|--------------|--------------|

e|-18----17-----|(17)----------|-18----17-----|(17)----------|--------------|--------------|
B|--------------|--------------|--------------|--------------|-21-----------|-20-----------|
G|--------------|--------------|--------------|--------------|--------------|--------------|
D|--------------|--------------|--------------|--------------|--------------|--------------|
A|--------------|--------------|--------------|--------------|--------------|--------------|
E|--------------|--------------|--------------|--------------|--------------|--------------|
Tap to rate this tab
 
# A B C D E F G H I J K L M N O P Q R S T U V W X Y Z