Song name
# A B C D E F G H I J K L M N O P Q R S T U V W X Y Z

King Diamond - Peace Of Mind tab

-------------------------------------------------------------------------------
			     PEACE OF MIND - KING DIAMOND
-------------------------------------------------------------------------------

Note: since there are only couple of tabs from this song and all have some flaws
I took the correct parts and fixed the wrong parts and made them into one tab.


Tuning: EADGBe

Tempo: around 60-70

Chords: Dm, Dsus, C/Dsus, G/Dsus, G, Bb/Am, Am


Riff 1 x 2
Riff 2 x 1
Riff 3 x 3
Riff 2 x 1
Riff 1 x 1
Riff 2 x 1


Riff 1                                    |this first time  |this second time|
e|----------1-----------3------------3----|-------3---------|---3------------|
B|--------3---3-------3---3------------3--|---------3-------|---3------------|
G|------2-------2---2-------2------0-----0|-----0-----0-----|---0------------|
D|----0-----------0--------------2--------|---0-------------|---0------------|
A|-----------------------------3----------|-2---------------|---2------------|
E|----------------------------------------|-----------------|---3------------|

Riff 2
e|---------------------------------------------------------------------------|
B|-----------1-----------1-----------1------1--------------------------------|
G|---------3---3-------2---2-------3---3----2--------------------------------|
D|-------3-------3---2-------2---3-------3--2--------------------------------|
A|-----1-----------0-----------1------------0--------------------------------|
E|---------------------------------------------------------------------------|

Riff 3
e|----------0-----------0-----------3-----------3----------------------------|
B|--------1---1-------1---1-------3---3-------3---3--------------------------|
G|------2-------2---2-------2---0-------0---0-------0------------------------|
D|----0-----------0-----------0-----------0----------------------------------|
A|---------------------------------------------------------------------------|
E|---------------------------------------------------------------------------|

Lead 1 with Riff 1
e|---------------------------------------------------------------------------|
B|---------------------------------------------------------------------------|
G|------------------------12--14--12-----------------------------------------|
D|------12-----12h14-15---------------14--10---10s12-------------------------|
A|---------------------------------------------------------------------------|
E|---------------------------------------------------------------------------|

e|---------------------------------------------------------------------------|
B|------------------------------------13--15--12-----------------------------|
G|------------------------12--14--12-----------------------------------------|
D|------12-----12-14-15------------------------------------------------------|
A|---------------------------------------------------------------------------|
E|---------------------------------------------------------------------------|

Lead 2 with Riff 2
e|---------------------------------------------------------------------------|
B|------15----15-13-11--13h15-13p11-13---11-13-15--15-13-11-13~~~~-----------|
G|---------------------------------------------------------------------------|
D|---------------------------------------------------------------------------|
A|---------------------------------------------------------------------------|
E|---------------------------------------------------------------------------|

Lead 3 with Riff 3
e|--------------------------------------------------------------------19-15--|
B|------------------8-----------8-----10p8-10~--13p12-13~--17p15-17~---------|
G|------7-------7-9---7-----7-9---9~-----------------------------------------|
D|---------------------------------------------------------------------------|
A|---------------------------------------------------------------------------|
E|---------------------------------------------------------------------------|

e|---------------------------------------------------------------------------|
B|------17--15-------------------------15-h17p15s13-12-13-15-17-13-----------|
G|---------------14-h16p14s12~~----------------------------------------------|
D|---------------------------------------------------------------------------|
A|---------------------------------------------------------------------------|
E|---------------------------------------------------------------------------|

e|---------------------------19-17-------------------------------------------|
B|-----15-h17p15s13-12-13-15-------20-19-17-19-15~----13--12~~---------------|
G|---------------------------------------------------------------------------|
D|---------------------------------------------------------------------------|
A|---------------------------------------------------------------------------|
E|---------------------------------------------------------------------------|

Lead 4 with Riff 2
e|---------------------------------------------------------------------------|
B|---------15---11----13h15-13------15---15--13--11--13~~~~~~----------------|
G|---------------------------------------------------------------------------|
D|---------------------------------------------------------------------------|
A|---------------------------------------------------------------------------|
E|---------------------------------------------------------------------------|

Lead 1 again with Riff 1

Lead 5 with Riff 2
e|---------------------------------------------------------------------------|
B|------13---11-10-13------13----13-11-10------------------------------------|
G|----------------------------------------9----------------------------------|
D|---------------------------------------------------------------------------|
A|---------------------------------------------------------------------------|
E|---------------------------------------------------------------------------|
Tap to rate this tab
 
# A B C D E F G H I J K L M N O P Q R S T U V W X Y Z