Song name
# A B C D E F G H I J K L M N O P Q R S T U V W X Y Z

King Diamond - Emerencia tab

#----------------------------------PLEASE NOTE---------------------------------#
#This file is the author's own work and represents their interpretation of the #
#song. You may only use this file for private study, scholarship, or research. #
#------------------------------------------------------------------------------##


First solo
 

|----------------7--12--7---------------8-7---------------------------------|
|------------7-8----------8-7---7-8--10-----10-8-7-----7-8-7----------------|
|----------9------------------9--------------------7-9-------9-7------------|
|--------9-------------------------------------------------------10-9-7-----|
|-7-9-10----------------------------------------------------------------10--|
|---------------------------------------------------------------------------|


|----------------7--12-7------15--12-----19--15--12--15--12-------|
|------------7-8---------8-----------12---------------------12----|
|----------9------------------------------------------------------|
|--------9--------------------------------------------------------|
|-7-9-10----------------------------------------------------------|
|-----------------------------------------------------------------|


|-12--7---------------|
|-------8--12--8------|
|----------------9----|  play twice accordingly
|---------------------|
|---------------------|
|---------------------|




                                               ~~                    ~~
|-------------------------------------------------------------------------|
|-------------------------------------------------------------------------|
|-9-11-12-9-11-12---/16-14h16p14-12--11-12-14-12----12-14-12--11-12-11----|
|-------------------------------------------------------------------------|
|-------------------------------------------------------------------------|
|-------------------------------------------------------------------------|


   ~~                                ~~
|-------------------------------------------------14-16-17-16-14----16-14-------14------------|
|---------------14-16--16b17--16p14-16---14-16-17----------------17-------17-16----17-16-14---|
|-13---13-14-16-------------------------------------------------------------------------------|
|---------------------------------------------------------------------------------------------|
|---------------------------------------------------------------------------------------------|
|---------------------------------------------------------------------------------------------|


                                         ~~                  ~~
|-----------------------------------------------------------------|
|-----------------------------------------------------------------|
|-17-16-14------------17-16-14------------------------------------|
|----------16-14-13------------16-14-13---------------------------|
|---------------------------------------16--16-18-18b19-18--13----|
|-----------------------------------------------------------------|


================================================================================================


Second solo


   \divebomb - adjust accordingly
|-15-------12-13-15--15-13-12----------------------------------------|
|-----------------------------15-13-12-------------------------------|
|--------------------------------------14-15-17-17-15-14-------------|
|--------------------------------------------------------17-15-14----|
|--------------------------------------------------------------------|
|--------------------------------------------------------------------|


|----------------------------------------------15-17-18-20---------------------------------------|
|----------------------------15-17-18-15-17-18-------------18-17-15-----------------18-17h18p17--|
|----------14-15-17-14-15-17----------------------------------------17-15--15-17-19--------------|
|-14-15-17---------------------------------------------------------------------------------------|
|------------------------------------------------------------------------------------------------|
|------------------------------------------------------------------------------------------------|


|----------------|
|-15-17-17/22----|
|----------------|
|----------------|
|----------------|
|----------------|


Tabbed by : dou_Shred
Tap to rate this tab
# A B C D E F G H I J K L M N O P Q R S T U V W X Y Z