Song name
# A B C D E F G H I J K L M N O P Q R S T U V W X Y Z

King Gizzard And The Lizard Wizard - Dead Beat tab

                     King Gizzard and the Lizard Wizard - Dead Beat
                         from their 2011 EP Willoughby's Beach

Intro:
Start off by rapidly hitting this note and
gradually increase the intensity of it:
Guitar 1:
e|-----------------|
B|-----------------|
G|-----------------| x4
D|-----------------|
A|-----------------|
E|-5-5-5-5-5-5-5-5-|


Verse:
"Pull my finger and punch my face,
You're all happy 'cause my nose is bleedin' all over the place"
Guitar 1:
e|-----------------------------|
B|-----------------------------|
G|---------------7-7.--10-10.--| x4
D|-7-7.--10-10.--7-7.--10-10.--|
A|-7-7.--10-10.--5-5.---8--8.--|
E|-5-5.---8--8.----------------|


Chorus:
"Oh-oh-oh-oh,
Oh-oh-oh-oh,
Ohh-ohh-ohh-oh,
Ohh-ohh-ohh-oh"
Guitar 1:
e|-----------------------------------------|
B|-----------------------------------------|
G|---------------------7-7-7-7-10-10-10-10-| x4
D|-7-7-7-7-10-10-10-10-7-7-7-7-10-10-10-10-|
A|-7-7-7-7-10-10-10-10-5-5-5-5--8--8--8--8-|
E|-5-5-5-5--8--8--8--8---------------------|

Guitar 2 plays these arpeggios:
e|-------------------------------------|
B|---5-------5-------7--------10-------|
G|-6---6---5---5---7---7---10----10----| x4
D|-------7-------7-------7----------10-|
A|-------------------------------------|
E|-------------------------------------|


Fuzz riff:
Guitar 1:
e|-------------------------------------------------|
B|-------------------------------------------------|
G|-------------------------------------------------|
D|-------------------------------------------------|
A|-------5--8--------5--8--7--5--5-----7--5--5-----|
E|-5--8--------5--8-----------------8-----------8--|


Back to how the intro started:
Guitar 1:
e|-----------------|
B|-----------------|
G|-----------------| x4
D|-----------------|
A|-----------------|
E|-5-5-5-5-5-5-5-5-|


Verse:
"Pull my finger and punch my face,
And I'm all happy 'cause my nose is bleedin' all over the place"
Guitar 1:
e|-----------------------------------------|
B|-----------------------------------------|
G|---------------------7-7-7-7-10-10-10-10-| x4
D|-7-7-7-7-10-10-10-10-7-7-7-7-10-10-10-10-|
A|-7-7-7-7-10-10-10-10-5-5-5-5--8--8--8--8-|
E|-5-5-5-5--8--8--8--8---------------------|


Chorus:
"Oh-oh-oh-oh,
Oh-oh-oh-oh,
Ohh-ohh-ohh-oh,
Ohh-ohh-ohh-oh"
Guitar 1:
e|-----------------------------------------|
B|-----------------------------------------|
G|---------------------7-7-7-7-10-10-10-10-| x4
D|-7-7-7-7-10-10-10-10-7-7-7-7-10-10-10-10-|
A|-7-7-7-7-10-10-10-10-5-5-5-5--8--8--8--8-|
E|-5-5-5-5--8--8--8--8---------------------|

Guitar 2 plays these arpeggios:
e|-------------------------------------|
B|---5-------5-------7--------10-------|
G|-6---6---5---5---7---7---10----10----| x4
D|-------7-------7-------7----------10-|
A|-------------------------------------|
E|-------------------------------------|


Fuzz riff:
Guitar 1:
e|-------------------------------------------------|
B|-------------------------------------------------|
G|-------------------------------------------------|
D|-------------------------------------------------|
A|-------5--8--------5--8--7--5--5-----7--5--5-----|
E|-5--8--------5--8-----------------8-----------8--|


Similar to the intro, a guitar plays the root notes of the chords:
Guitar 1:
e|---------------------------------|
B|---------------------------------|
G|---------------------------------| x3
D|---------------------------------|
A|-----------------5-5-5-5-8-8-8-8-|
E|-5-5-5-5-8-8-8-8-----------------|

e|---------------------------------|
B|---------------------------------|
G|---------------------------------|
D|---------------------------------|
A|---------------------------------|
E|-5-5-5-5-3-3-3-3-2-2-2-2-0-0-0-0-|


A guitar plays this once:
Guitar 1:
e|-------------------|
B|-------------------|
G|----------7.--10.--|
D|-7.--10.--7.--10.--|
A|-7.--10.--5.---8.--|
E|-5.---8.-----------|


Harmonica solo:
Guitar 1 keeps playing this rhythm:
e|-----------------------------------------|
B|-----------------------------------------|
G|---------------------7-7-7-7-10-10-10-10-| x4
D|-7-7-7-7-10-10-10-10-7-7-7-7-10-10-10-10-|
A|-7-7-7-7-10-10-10-10-5-5-5-5--8--8--8--8-|
E|-5-5-5-5--8--8--8--8---------------------|


Chorus:
"Oh-oh-oh-oh,
Oh-oh-oh-oh,
Ohh-ohh-ohh-oh,
Ohh-ohh-ohh-oh"
Guitar 1:
e|-----------------------------------------|
B|-----------------------------------------|
G|---------------------7-7-7-7-10-10-10-10-| x4
D|-7-7-7-7-10-10-10-10-7-7-7-7-10-10-10-10-|
A|-7-7-7-7-10-10-10-10-5-5-5-5--8--8--8--8-|
E|-5-5-5-5--8--8--8--8---------------------|

Guitar 2 plays these arpeggios:
e|-------------------------------------|
B|---5-------5-------7--------10-------|
G|-6---6---5---5---7---7---10----10----| x4
D|-------7-------7-------7----------10-|
A|-------------------------------------|
E|-------------------------------------|


Hit this chord and give it some light vibrato:
Guitar 1 and 2:
e|-5--------|
B|-5--------|
G|-6--------|
D|-7--------|
A|-7--------|
E|-5--------|


And then you hit it again as it transitions
into a tempo change. Just make crazy sounds
with a delay pedal and make guitar feedback
for four measures:
Guitar 1 and 2:
e|-5--------|
B|-5--------|
G|-6--------|
D|-7--------|
A|-7--------|
E|-5--------|


After the four measures, the fuzz riff comes back, but slowed down:
Guitar 1:
e|---------------------------------------------------------------------------------|
B|---------------------------------------------------------------------------------|
G|---------------------------------------------------------------------------------|
D|---------------------------------------------------------------------------------|
A|-----------5----8--------------5----8----7----5----5---------7----5----5---------|
E|-5----8--------------5----8-----------------------------8-------------------8----|


Outro:
Guitar 1:
e|------------------------------|
B|------------------------------|
G|--------------7.----10-10-10--| x4
D|-7.----10.----7.----10-10-10--|
A|-7.----10.----5.-----8--8--8--|
E|-5.-----8.--------------------|


Then hit this chord and let it feedback:
Guitar 1 and 2:
e|-5--------|
B|-5--------|
G|-6--------|
D|-7--------|
A|-7--------|
E|-5--------|



************************************

| /   slide up
| \   slide down
| h   hammer-on
| p   pull-off
| ~   vibrato
| +   harmonic
| x   Mute note
| .   staccato
| b   Bend
| pb  Pre-bend
| br  Bend release
| pbr Pre-bend release
| brb Bend release bend

************************************    

http://kinggizzardandthelizardwizard.com/
http://www.facebook.com/kinggizzardandthelizardwizard
Tap to rate this tab
# A B C D E F G H I J K L M N O P Q R S T U V W X Y Z