Song name
# A B C D E F G H I J K L M N O P Q R S T U V W X Y Z

King Harvest - Dancing In The Moonlight tab

Dancing In The Moonlight Tab by King Harvest


+ --------------------------------------------------------------------- +
| Ultimate Guitar Tabs Archive - your #1 source for tabs!               |
| http://www.ultimate-guitar.com/                                       |
|                                                                       |
| Over 300,000 guitar, guitar pro and bass tabs! Also lessons, news,    |
| columns and guitar forums!                                            |
+ --------------------------------------------------------------------- +


Intro:

        (Wurlitzer electric piano arr. for guitar; actually played one
         octave higher):

        Cm7                       Fm7
         v     v     v     v       v     v     v     v
        ----------3--------------|-------------------------|
        -------------4-----------|----4--------4-----4-----|
        -------3--------3-----3--|----1--------1-----1--2--|
        ----5--------------5-----|-3--------3--------------|
        -3-----------------------|-------------------------|
        -------------------------|-------------------------|

        Bb                    Eb             Bb/D
         v     v     v     v       v     v     v     v
        ----------------------3--|----------3--1--------1--|
        -1-h3--1-h3-----1--------|-------4-----------3-----|
        -3-----------------3-----|----3-----------3--------|
        -------------------------|-------------0--------0--|
        ----------------------6--|----------6--------------|
        -------------------------|-------------------------|

        Cm7                       Fm7 (bass enters)
         v     v     v     v       v     v     v     v
        ----------3--------------|-------------------------|
        -4-----------4-----------|----4--------4-----4-----|
        -------3--------3-----3--|----1--------1-----1--2--|
        ----5--------------5-----|-3--------3--------------|
        -3-----------------------|-------------------------|
        -------------------------|-------------------------|

        Bb                   Gm/D              Gm            Cm [N.C.]
         v     v     v     v       v     v     v     v       v
        ----------------------3--|----3--------3-----3-----|---|
        -1-h3--1-h3-----------3--|----3--------3-----3-----|-3-|
        -3--------3-----------3--|-------------3-----3-----|-5-|
        -------------------------|-------------5-----------|-5-|
        ----------------------5--|----5--------------5-----|-3-|
        -------------------------|-------------------------|---|


Verse 1:

                  Fm7                Bb
        We get it almost every night
                       Eb         Bb/D       Cm
        When that ol' moon gets-a big and bright
                     Fm7       Bb
        It's a supernatural delight
                     Eb    Bb/D     Cm
        Everybody's dancin' in the moonlight

Guitar solo 1:

---11-----------------------------------------------------------|
------------------------------------11~--11--/13----------------|
----10br-10-10-8-10/12~-10-10p8-/12~---12-----------------------|
----------------------------------------------------------------|
----------------------------------------------------------------|
----------------------------------------------------------------|


Played over:

        Fm       Bb       Eb Bb/D  Cm [N.C.]
        / / / /  / / / /  / / / /  /

Verse 2:

        Everybody here is out of sight
        They don't bark, and they don't bite

        They keep things loose, they keep things light
        Everybody was dancin' in the moonlight

Chorus (same chords as verse; different melody)

        Everybody's dancin' in the moonlight
        Everybody's feelin' warm and right
        It's such a fine and natural sight
        Everybody's dancin' in the moonlight

Verse 3:

        We like our fun and we never fight
        You can't dance and stay uptight
        It's a supernatural delight
        Everybody was dancin' in the moonlight

Guitar solo 2:

----b11-11-8-------------b11-11-8-------------------------------|
----b11-11-8-9--8--8-9~--b11-11-8---11-11--11---11----8~/-------|
-------------10-10-8-10~---------10b--hb10-bh10-hb10r-8~/-------|(X2)
----------------------------------------------------------------|
----------------------------------------------------------------|
----------------------------------------------------------------|

Played over:

        Fm       Bb       Eb Bb/D  Cm
        / / / /  / / / /  / / / /  / / / /
        Fm       Bb       Eb Bb/D  Cm [N.C.]
        / / / /  / / / /  / / / /  /

[repeat verse 2]

[repeat chorus; fade 4th time]




END

+--------------------------------------------------------------------------+
| This file is the author's own work and represents their interpretation   |
| of the song. You may only use this file for private study, scholarship,  |
| or research.                                                             |
+--------------------------------------------------------------------------+

Ultimate-Guitar.Com  2013              
Tap to rate this tab
# A B C D E F G H I J K L M N O P Q R S T U V W X Y Z