Song name
# A B C D E F G H I J K L M N O P Q R S T U V W X Y Z

King Jack - Battle With No End tab

Hey, i found this great band by accident, and i've became a big fan. Then i looked 
for their songs and stuff online but they'r not very known..
so i decided to post a tab of one of their songs here.
This is my 1st tab so..

The guitar is drop D# tuned 

Intro:

caugth in a corner....
|------------------------------------------------|
|----------3----------3----------3---------------|
|----------2----------2----------2---------------|
|-0---0----0--0---0---0--0---0---0--0---0-----0--|
|-0---0-------0---0------0---0------0---0-----0--|
|-0---03b-----0---03b----0---03b----0---03*---0--|   * slide like 3,2,1,0 and repeat it



Bridge:

... tonigth yeah tonigth... the river will arise
|-----------------------------------------------------------------|
|-----------------------------------------3-33---3----------3-----|
|-----------------------------------------2-22---2----------2-----|
|---5-----------------------3-------------0-00---0--0-00----0-----|
|---5-----------------------3-----------------------0-00----------|
|---5-----------------------3------------------3b---0-00-3b-------|



Chorus:

Don't let the....                  ...battle with no end
|--------------------------------------|
|--3-------------2---------3-------3---|
|--4-------------3---------4-------2---|
|--x-------------x---------4-------0---|
|--5-------------4---------2-------0---|
|--5-------------4---------2-------0---|

 
the 2nd time goes like:
 
...battle with no end, battle with no end
----------------------------------------------------------------|
--3------------------3------2------3-33---3----------3---------3|
--2------------------4------3------2-22---2----------2---------2|
--0------------------x------x------0-00---0--0-00----0--0-00---0|
--0------------------5------4----------------0-00-------0-00----|
--0------------------5------4-----------3b---0-00-3b----0-00-3b-|




Outro:

|------------------------------------|
|---15------13------12-----10--------|
|---14------12------12-----9---------|
|---0-------0-------0------0---------|
|---0-------0-------0------0---------|
|---0-------0-------0------0---------|      Just strumm ! xD



The intire song goes like :

intro (main riff) - Bridge - Chorus( bis) - main riff - bridge - chorus - outro - Chorus.


Have fun playing this awsome song ; D
If you think something is wrong let me know :
jmpdpf@hotmail.com


KING JACK ! 



Official band site : http://kingjackmusic.tumblr.com/
King Jack's song   : http://www.youtube.com/watch?v=p6tkCPwfq_w
Tap to rate this tab
 
# A B C D E F G H I J K L M N O P Q R S T U V W X Y Z