Song name
# A B C D E F G H I J K L M N O P Q R S T U V W X Y Z

King Khan And The Shrines - How Can I Keep You Outta Harms Way tab

-------------------------------------------------------------------------------
	(How Can I Keep You) Outta Harms Way - King Khan and the Shrines
-------------------------------------------------------------------------------
Tabbed by: Jeff


e|-----------------------------------------------------------------------------|
B|-----------------------------------------------------------------------------|
G|----------- etc --------------5--5------------7--7--7----------- etc --------|
D|-7-7-7-7-7-------------7--7---5--5--5---5--5--7--7--7------------------------|
A|-----------------------7--7---3--3--5---5--5--5--5--5------------------------|
E|-----------------------5--5---------3---3--3---------------------------------|

e|------------------------------------------------------------------------------|
B|------------------------------------------------------------------------------|
G|------------------------------------------------------------------------------|
D|---7--7-----5-\4----5--5-------4(h5p4)----------------------------------------|
A|--------5h7---------------3h5-----------(h7)----------------------------------|
E|------------------------------------------------------------------------------|

more to be added...


| /  slide up
| \  slide down
| h  hammer-on
| p  pull-off
| ~  vibrato
| +  harmonic
| x  Mute note

http://www.hazelwood.de/kingkhan/index.php

===============================================================================
Tap to rate this tab
 
# A B C D E F G H I J K L M N O P Q R S T U V W X Y Z