Song name
# A B C D E F G H I J K L M N O P Q R S T U V W X Y Z

King Khan And The Shrines - Land Of The Freak tab

Pretty Simple, not a lot of guitar played in this song, but it can be played the same on 
electric guitar with some distortion. LYRICS BELOW!!!! Normal tuning

Intro

e|---------------------------------------------------------------------------|
B|---------------------------------------------------------------------------|
G|---------------------------------------------------------------------------|
D|--------------------------------------------------7----5~------------------|
A|----/7----7----7----7----0----5--6--7----7----7----------------------------|
E|---------------------------------------------------------------------------|

e|------------------------------------------------------------------------------|
B|------------------------------------------------------------------------------|
G|------------------------------------------------------------------------------|
D|------------------------------------------------------------------------------|
A|----/7----7----7----7----0----5--6--7----5----2----0--------------------------|
E|------------------------------------------------------------------------------|

e|---------------------------------------------------------------------------|
B|---------------------------------------------------------------------------|
G|---------------------------------------------------------------------------|
D|-------------------------------------------------------7----5~-------------|
A|----0--2/5/7---7----7----7----0----5--6--7----7----7-----------------------|
E|---------------------------------------------------------------------------|

Repeat Intro 2X

Pre Lyrics - This is the main variation of the song

e|---------------------------------------------------------------------------|
B|---------------------------------------------------------------------------|
G|---9-9-7-9---9-9-7-9----9-9-7-9/10-10\7 7-9--------------------------------|
D|---9-9-7-9---9-9-7-9----9-9-7-9/10-10\7-7-9--------------------------------|
A|---7-7-7-7---7-7-7-7----7-7-7-7/12-10\7-7-7--------------------------------|
E|---------------------------------------------------------------------------|

Play with lines with basic variation:

e|---------------------------------------------------------------------------|
B|---------------------------------------------------------------------------|
G|---9-9-7-9---9-9-7-9----9-9-7-9----9-9--x-7-9-9----------------------------|
D|---9-9-7-9---9-9-7-9----9-9-7-9----9-9--9-7-9-9----------------------------|
A|---7-7-7-7---7-7-7-7----7-7-7-7----7-7--9-7-7-7---------repeat-------------|
E|---------------------------------------------------------------------------|

"Get your hoes 'cause you're loaded and you're loosing your mind
Don't you worry cause we got you a fix
We're gonna take you to the Midnight Mover
Quick with a big bag of tricks"

Back to main variation

e|---------------------------------------------------------------------------|
B|---------------------------------------------------------------------------|
G|---9-9-7-9---9-9-7-9----9-9-7-9/10-10\7 7-9--------------------------------|
D|---9-9-7-9---9-9-7-9----9-9-7-9/10-10\7-7-9--------------------------------|
A|---7-7-7-7---7-7-7-7----7-7-7-7/12-10\7-7-7--------repeat------------------|
E|---------------------------------------------------------------------------|

"From Atlanta, Georgia to a Castle City, too
We are due for a lot, even a little Kalamazoo"

Chorus:

This part is mostly base guitar and trumpets...so I just do a various of power cords
that deriving from the base notes, while singing the chorus. This is not 100% because only the
trumpets go this high. Base only 5-5-3 and 7-7-5 are the base notes, but adding in 
makes it easier to sing
with just a guitar, but you can play with it how you want.
e|-----------------------------------------------------------------------------|
B|-----------------------------------------------------------------------------|
G|-----------------------------------------------------------------------------|
D|--5-5-5-5-5-5/12-12-12-12-12---7-7-7-7--------------------------Repeat 3x----|
A|--5-5-5-5-5-5/12-10-12-12-12---7-7-7-7---------------------------------------|
E|--3-3-3-3-3-3/10-10-10-10-10---5-5-5-5---------------------------------------|
 ..Land of the freak now baby..  Only can the strong survive

"Land of the freak now baby
Only forty miles to drive
Land of the freak now baby
Tell me what it's gonna be
Yeah, the land of the freak now baby
Only enough for you and me"

Main variation
e|---------------------------------------------------------------------------|
B|---------------------------------------------------------------------------|
G|---9-9-7-9---9-9-7-9----9-9-7-9/10-10\7 7-9--------------------------------|
D|---9-9-7-9---9-9-7-9----9-9-7-9/10-10\7-7-9--------------------------------|
A|---7-7-7-7---7-7-7-7----7-7-7-7/12-10\7-7-7--------------------------------|
E|---------------------------------------------------------------------------|

Back to basic variation
e|---------------------------------------------------------------------------|
B|---------------------------------------------------------------------------|
G|---9-9-7-9---9-9-7-9----9-9-7-9----9-9--x-7-9-9----------------------------|
D|---9-9-7-9---9-9-7-9----9-9-7-9----9-9--9-7-9-9----------------------------|
A|---7-7-7-7---7-7-7-7----7-7-7-7----7-7--9-7-7-7---------repeat-------------|
E|---------------------------------------------------------------------------|

"You're hurt 'cause you're lonesome and you're wasting your time
Don't you worry cause we got your back
We going to take you wherever you want
Take a ride in my big Cadillacs"

Back to main variation

e|---------------------------------------------------------------------------|
B|---------------------------------------------------------------------------|
G|---9-9-7-9---9-9-7-9----9-9-7-9/10-10\7 7-9--------------------------------|
D|---9-9-7-9---9-9-7-9----9-9-7-9/10-10\7-7-9--------------------------------|
A|---7-7-7-7---7-7-7-7----7-7-7-7/12-10\7-7-7--------repeat------------------|
E|---------------------------------------------------------------------------|

"From Atlanta, Georgia to a Castle City, too
We are due for a lot, even a little Kalamazoo"

Chorus:

e|-----------------------------------------------------------------------------|
B|-----------------------------------------------------------------------------|
G|-----------------------------------------------------------------------------|
D|--5-5-5-5-5-5/12-12-12-12-12---7-7-7-7--------------------------Repeat 3x----|
A|--5-5-5-5-5-5/12-10-12-12-12---7-7-7-7---------------------------------------|
E|--3-3-3-3-3-3/10-10-10-10-10---5-5-5-5---------------------------------------|
 ..Land of the freak now baby..  Only can the strong survive

"Land of the freak now baby
Only forty miles to drive
Land of the freak now baby
Tell me what it's gonna be
Yeah, the land of the freak now baby
Only enough for you and me"

BASE LINES OF INTRO:
e|---------------------------------------------------------------------------|
B|---------------------------------------------------------------------------|
G|---------------------------------------------------------------------------|
D|--------------------------------------------------7----5~------------------|
A|----/7----7----7----7----0----5--6--7----7----7----------------------------|
E|---------------------------------------------------------------------------|
All right, all right, all right, all right

e|---------------------------------------------------------------------------|
B|---------------------------------------------------------------------------|
G|---------------------------------------------------------------------------|
D|---------------------------------------------------------------------------|
A|----/7----7----7----7----0----5--6--7----5----2----0-----------------------|
E|---------------------------------------------------------------------------|
I wanna give a shout out to the deaf girls

e|---------------------------------------------------------------------------|
B|---------------------------------------------------------------------------|
G|---------------------------------------------------------------------------|
D|-------------------------------------------------------7----5~-------------|
A|----0--2/5/7---7----7----7----0----5--6--7----7----7-----------------------|
E|---------------------------------------------------------------------------|
        ..............................................
e|---------------------------------------------------------------------------|
B|-------Do a slide, or just make alot of noise------------------------------|
G|---------------------------------------------------------------------------|
D|---12/11/10/9/8/7/6/5/4/3/2/1----------------------------------------------|
A|---12/11/10/9/8/7/6/5/4/3/2/1----------------------------------------------|
E|---12/11/10/9/8/7/6/5/4/3/2/1----------------------------------------------|

            "Now come on!"
e|---------------------------------------------------------------------------|
B|---------------------------------------------------------------------------|
G|---------------------------------------------------------------------------|
D|--------------------------------------------------7----5~------------------|
A|----/7----7----7----7----0----5--6--7----7----7----------------------------|
E|---------------------------------------------------------------------------|

I can't hear ya, I can't you hear you now
e|---------------------------------------------------------------------------|
B|---------------------------------------------------------------------------|
G|---------------------------------------------------------------------------|
D|---------------------------------------------------------------------------|
A|----/7----7----7----7----0----5--6--7----5----2----0-----------------------|
E|---------------------------------------------------------------------------|

e|---------------------------------------------------------------------------|
B|---------------------------------------------------------------------------|
G|---------------------------------------------------------------------------|
D|-------------------------------------------------------7----5~-------------|
A|----0--2/5/7---7----7----7----0----5--6--7----7----7-----------------------|
E|---------------------------------------------------------------------------|


e|---------------------------------------------------------------------------|
B|-------Do a slide, or just make alot of noise------------------------------|
G|---------------------------------------------------------------------------|
D|---12/11/10/9/8/7/6/5/4/3/2/1----------------------------------------------|
A|---12/11/10/9/8/7/6/5/4/3/2/1----------------------------------------------|
E|---12/11/10/9/8/7/6/5/4/3/2/1----------------------------------------------|

Give me something loud; loud and proud

e|---------------------------------------------------------------------------|
B|---------------------------------------------------------------------------|
G|---------------------------------------------------------------------------|
D|--------------------------------------------------7----5~------------------|
A|----/7----7----7----7----0----5--6--7----7----7----------------------------|
E|---------------------------------------------------------------------------|

e|---------------------------------------------------------------------------|
B|---------------------------------------------------------------------------|
G|---------------------------------------------------------------------------|
D|---------------------------------------------------------------------------|
A|----/7----7----7----7----0----5--6--7----5----2----0-----------------------|
E|---------------------------------------------------------------------------|

e|---------------------------------------------------------------------------|
B|---------------------------------------------------------------------------|
G|---------------------------------------------------------------------------|
D|-------------------------------------------------------7----5~-------------|
A|----0--2/5/7---7----7----7----0----5--6--7----7----7-----------------------|
E|---------------------------------------------------------------------------|

I know you got something more in there

e|---------------------------------------------------------------------------|
B|-------Do a slide, or just make alot of noise------------------------------|
G|---------------------------------------------------------------------------|
D|---12/11/10/9/8/7/6/5/4/3/2/1----------------------------------------------|
A|---12/11/10/9/8/7/6/5/4/3/2/1----------------------------------------------|
E|---12/11/10/9/8/7/6/5/4/3/2/1----------------------------------------------|
Now show it!

e|-e|------------------------------------------------------------------------|
B|---------------------------------------------------------------------------|
G|---------------------------------------------------------------------------|
D|--------------------------------------------------7----5~------------------|
A|----/7----7----7----7----0----5--6--7----7----7----------------------------|
E|---------------------------------------------------------------------------|
Tell me what you've been waiting...

e|---------------------------------------------------------------------------|
B|---------------------------------------------------------------------------|
G|---------------------------------------------------------------------------|
D|---------------------------------------------------------------------------|
A|----/7----7----7----7----0----5--6--7----5----2----0-----------------------|
E|---------------------------------------------------------------------------|

e|---------------------------------------------------------------------------|
B|---------------------------------------------------------------------------|
G|---------------------------------------------------------------------------|
D|-------------------------------------------------------7----5~-------------|
A|----0--2/5/7---7----7----7----0----5--6--7----7----7-----------------------|
E|---------------------------------------------------------------------------|

"Ah!"

Back to main variation

e|---------------------------------------------------------------------------|
B|---------------------------------------------------------------------------|
G|---9-9-7-9---9-9-7-9----9-9-7-9/10-10\7 7-9--------------------------------|
D|---9-9-7-9---9-9-7-9----9-9-7-9/10-10\7-7-9--------------------------------|
A|---7-7-7-7---7-7-7-7----7-7-7-7/12-10\7-7-7--------repeat------------------|
E|---------------------------------------------------------------------------|

Back to basic variation
e|---------------------------------------------------------------------------|
B|---------------------------------------------------------------------------|
G|---9-9-7-9---9-9-7-9----9-9-7-9----9-9--x-7-9-9----------------------------|
D|---9-9-7-9---9-9-7-9----9-9-7-9----9-9--9-7-9-9----------------------------|
A|---7-7-7-7---7-7-7-7----7-7-7-7----7-7--9-7-7-7---------repeat-------------|
E|---------------------------------------------------------------------------|

"You're hurt 'cause you're lonesome and you're wasting your time
Don't you worry cause we got you a fix
We're gonna take you to the Midnight Mover
Quick with a big bag of tricks"

e|---------------------------------------------------------------------------|
B|---------------------------------------------------------------------------|
G|---9-9-7-9---9-9-7-9----9-9-7-9/10-10\7 7-9--------------------------------|
D|---9-9-7-9---9-9-7-9----9-9-7-9/10-10\7-7-9--------------------------------|
A|---7-7-7-7---7-7-7-7----7-7-7-7/12-10\7-7-7--------repeat------------------|
E|---------------------------------------------------------------------------|

From Atlanta, Georgia to Castle City, too
We gonna do Berlin, even a little Kalamazoo

Land of the freak now baby
Only can the strong survive
Land of the freak now baby
Only forty miles to drive
Land of the freak now baby
Tell me where it's gonna be
Yeah, the land of the freak now baby
Waiting there for you and me

Chorus:

e|-----------------------------------------------------------------------------|
B|-----------------------------------------------------------------------------|
G|-----------------------------------------------------------------------------|
D|--5-5-5-5-5-5/12-12-12-12-12---7-7-7-7--------------------------Repeat 3x----|
A|--5-5-5-5-5-5/12-10-12-12-12---7-7-7-7---------------------------------------|
E|--3-3-3-3-3-3/10-10-10-10-10---5-5-5-5---------------------------------------|
 ..Land of the freak now baby..  Only can the strong survive

"Land of the freak now baby
Only forty miles to drive
Land of the freak now baby
Tell me what it's gonna be
Yeah, the land of the freak now baby
Only enough for you and me"

CLOSING:

e|---------------------------------------------------------------------------|
B|--Closing Slide------------------------------------------------------------|
G|---------------------------------------------------------------------------|
D|--5-7-8-9-11-12-13-14~~~---------------------------------------------------|
A|--5-7-8-9-11-12-13-14~~~---------------------------------------------------|
E|--3-5-6-7--9-10-11-12~~~---------------------------------------------------|


************************************

Lyrics to Land of the Freak :
Get your hoes 'cause you're loaded and you're loosing your mind
Don't you worry cause we got you a fix
We're gonna take you to the Midnight Mover
Quick with a big bag of tricks

From Atlanta, Georgia to a Castle City, too
We are due for a lot, even a little Kalamazoo

Land of the freak now baby
Only can the strong survive
Land of the freak now baby
Only forty miles to drive
Land of the freak now baby
Tell me what it's gonna be
Yeah, the land of the freak now baby
Only enough for you and me

Ooooooh!

You're hurt 'cause you're lonesome and you're wasting your time
Don't you worry cause we got your back
We going to take you wherever you want
Take a ride in my big Cadillac

From Atlanta, Georgia to a Castle City, too
We are due for a lot, even a little Kalamazoo

Land of the freak now baby
Only can the strong survive
Land of the freak now baby
Only forty miles to drive
Land of the freak now baby
Tell me where it's gonna be
Yeah, the land of the freak now baby
Waiting now for you and me

Oooh!

All right, all right, all right, all right
I wanna give a shout out to the deaf girls
Now come on!
I can't hear ya, I can't you hear you now
Give me something loud; loud and proud
I know you got something more in there
Now show it!
Tell me what you've been waiting...

Ah!

You're hurt 'cause you're lonesome and you're wasting your time
Don't you worry cause we got you a fix
We're gonna take you to the Midnight Mover
Quick with a big bag of tricks

From Atlanta, Georgia to Castle City, too
We gonna do Berlin, even a little Kalamazoo

Land of the freak now baby
Only can the strong survive
Land of the freak now baby
Only forty miles to drive
Land of the freak now baby
Tell me where it's gonna be
Yeah, the land of the freak now baby
Waiting there for you and me
********************************************
| /   slide up
| \   slide down
| h   hammer-on
| p   pull-off
| ~   vibrato
| +   harmonic
| x   Mute note
| b   Bend
| pb  Pre-bend
| br  Bend release
| pbr Pre-bend release
| brb Bend release bend
Tap to rate this tab
# A B C D E F G H I J K L M N O P Q R S T U V W X Y Z