Song name
# A B C D E F G H I J K L M N O P Q R S T U V W X Y Z

King Krule - Baby Blue tab

INTRO

e|-----------------------------------------------------------------------------------|
B|-11----11-----8--------------------------------------------------------------------|
G|-12----12-----7--------------------------------------------------------------------|
D|-10----9------8--------------------------------------------------------------------|
A|-11----11-----6--------------------------------------------------------------------|
E|-----------------------------------------------------------------------------------|

VERSES:

e|-----------------------------------------------------------------------------------|
B|-------11--------11-------8--------7-----------------------------------------------|
G|-----12--12----12-12----7--7---7--6--------------------------------------- --------|
D|---10-----10--9-----9--8----8--8---7-------------------------------------- --------|
A|-11---------11-------6-------6-----6-----------------------------------------------|
E|-----------------------------------------------------------------------------------|

CHORUS:

e|------3-----------------------------------------------------------------------------|
B|-8----3-----4--------------8--7--8--------------------------------------------------|
G|-7----3-----5-------------7--6--7---------------------------------------------------|
D|-8----5-----5-----------------------------------------------------------------------|
A|-6----3-----x-----------------------------------------------------------------------|
E|------------4-----------------------------------------------------------------------|
Tap to rate this tab
# A B C D E F G H I J K L M N O P Q R S T U V W X Y Z