Song name
# A B C D E F G H I J K L M N O P Q R S T U V W X Y Z

King Krule - Ocean Bed tab

'Ocean Bed' song by King Krule, AKA Zoo Kid

intro

e|----------|
B|--------7-|
G|------5---|
D|----6-----|
A|--7-------|
E|----------|

Main Chord Pattern (easiest way of working out how its played is to listen to the track)
 (its goin' alright...)
|--------------------------9---9-----9-----------|
|--9-9-9h9------9-9---9----9---9-----9-----7-7-7-|
|--9-9-9-9------9-9---9----9---9-----9-----5-5-5-|
|--9-9-9-9------9p11--9-9--9---9--9--9---6-6-6-6-|
|----0----------0-------11-11--11-11-11--7-7-7-7-|
|-----------------------9--9---9--9--9---0---0---|

Chorus/Bridge parts
|----------------------------------|
|--------7-------7-------7-------7-|
|------4-------5-------4-------5---|
|----6-------6-------6-------6-----|
|--7-------7-------7-------7-------|
|----------------------------------|

|--------------------------------|
|--------------------------------|
|----6---6-6-6---6-6-6-6-6---6-6-|
|----6---6-6-6---6-6-6-6-6---6-6-|
|--------------------------------|
|--5-5-5-5-5-5-4---4-4-4-5-5-5-5-|
Tap to rate this tab
# A B C D E F G H I J K L M N O P Q R S T U V W X Y Z