Song name
# A B C D E F G H I J K L M N O P Q R S T U V W X Y Z

King Krule - Has This Hit tab

Man's a genius. Can't quite/haven't bothered to work out the bit inbetween the two 
obvious halves of the song.
My first tab, listen to work out the timings but i'll try set it out

E-0--------------------------------------------------------------------0-
B-0--------------------------------------------------------------------0-
G-0--------------------------------------------------------------------0-
D-2----------------------------------2-2-2-----------------2-2-----2-2-2-
A-3-------------------3--------------3-3-3-----------------3-3-----3-3-3-
E-0--0-0-0-0-0-0- etc.4-4-4-4-4 etc. 1-1-1-1-1-1-1-1-1-2-2-2-2-1-1-1-1-0-

                                      ^ Here just use as a guide, sometimes strum only 
6th string, sometimes catch bottom 3.

Some sort of interlude, followed by the sexy:

E---------------5-------------------------
B-8---10--------5-------------------------
G-7---9---------5------4---9--------------
D-8---10--------5------5---10-------------
A-7---9---------7------5---10-------------
E-----------4-5-5----3-3---8--------------
Tap to rate this tab
 
# A B C D E F G H I J K L M N O P Q R S T U V W X Y Z