Song name
# A B C D E F G H I J K L M N O P Q R S T U V W X Y Z

King Krule - Out Getting Ribs tab

ARTIST: King Krule
TITLE: Out Getting Ribs
ALBUM: 6 Feet Beneath The Moon

*(NOTE - This is the ALBUM version of the song [2013], not the [2010] single version!)*

Tabbed By: Harry Yeates [harryyeates@gmail.com] - (Feel free to ask questions!)

/ = Hammer-on
H = Harmonic

TUNING: 
D A D F# B e [Open D Variant] 

[INTRO]
e|---------------------------------------------------------------------------|
B|-----------------------------------7----8----7-----7-----------------------|
F#|-------10------10---12------12----7----8----7-----7-----------------------|
D|----------------------9-------9----7----8----7-----------------------------|
A|--------10------10---10------10--------------5-----------------------------|
D|-----------------------------------9----9----0-----------------------------|

[INTERLUDE]
e|---------------------------------------------------------------------------|
B|------------7---------------------0--------0-------------------------------|
F#|---------7---7-7/8/7-----------0--------0---------------------------------|
D|----------------------8----------------------------------------------------|
A|---------------------------------------------------------------------------|
D|-------0------------------0--5------5--4-----4--0--------------------------|

e|---------------------------------------------------------------------------|
B|------------7-----7---7-7--------------------------------------------------|
F#|---------7---7---7/8/7-8--------------------------------------------------|
D|---------------------------------------------------------------------------|
A|---------------------------------------------------------------------------|
D|-------0-------------------------------------------------------------------|

[VERSE 1]
e|---------------------------------------------------------------------------|
B|--------------------------------0--------0---------------------------------|
F#|---------7-5-----------------0--------0-----------------------------------|
D|--------------7--4---------------------------------------------------------|
A|-------------------7--5----------------------------------------------------|
D|-------0-----------------0--5-----5--4-----4--0----------------------------|

e|---------------------------------------------------------------------------|
B|----------7-10-12--7-10-12--------0--------0-------------------------------|
F#|-------------------------------0--------0---------------------------------|
D|---------------------------------------------------------------------------|
A|---------------------------------------------------------------------------|
D|-------0-------------------0--5-----5--4-----4--0--------------------------|

[VERSES FROM NOW ON PLAY THE INTERLUDE SEQUENCE]

[EPILOGUE] - (BETWEEN VERSES)
e|---------------------------------------------------------------------------|
B|-----------12h-----------19h-----------------------------------------------|
F#|----------12h-----------19h-----------------------------------------------|
D|---------------------------------------------------------------------------|
A|---------------------------------------------------------------------------|
D|---0--0-0--------0--0-0----------------------------------------------------|

[OUTRO] - INTRO PLAYED WITH HEAVY STRUM PATTERN
Tap to rate this tab
 
# A B C D E F G H I J K L M N O P Q R S T U V W X Y Z