Song name
# A B C D E F G H I J K L M N O P Q R S T U V W X Y Z

King Krule - Easy Easy tab

Standard tuning

Great song amazing artist. 
This is my first tab so any questions or tips leave em at my email Mark.kusi@hotmail.com enjoy! :)

intro          (verse) 
|--------|     |--------|--------|---------|---------|
|--------|     |--------|--------|---------|---------|
|--------|(x1) |--------|--------|---------|---------|(x3)
|--------|     |--------|--------|---------|---------|
|--------|     |--------|--------|---------|---------|
|00000000|     |00000000|00000444|/77777777|77777/666|

Well same old Bobby, same old beat
Well yeah they got nothing on me
The same old clutch, same old streets
But yeah they got nothing on me

Figure out the strumming for the rest....
|---6----|---4----|--------|---------|---------|
|---6----|---4----|--------|---------|---------|
|---6----|---4----|--------|---------|---------|(x5)
|---6----|---4----|--------|---/8----|---------|
|---6----|---4----|--------|---/9----|---------|
|---0----|---0----|---4----|---/7----|---/6----|

And easy come and easy go
Well yeah I'm sure I told you so
Well they just want you for your dough
Man I'm sure I told you so
And with your dead-end job
That's been eating away your life
You feel a little inside
The trouble and strife
And now you spend your evenings
Searching for another life
And yeah I think maybe
I think you've got them in your sights

Chorus
|--------|--------|--------|--------|
|---4----|-/3/2---|---4----|--/9----|
|---3----|-/2/1---|---3----|--/8----|(x2)
|---4----|-/3/0---|---4----|--/9----|
|---2----|-/2/2---|---2----|--/7----|
|--------|--------|--------|--------|

Well, easy easy
There's no need to take that tone
Well easy
I'm on the telephone
Man just leave us alone

verse
|---6----|---4----|--------|---------|---------|
|---6----|---4----|--------|---------|---------|
|---6----|---4----|--------|---------|---------|(x4)
|---6----|---4----|--------|---/8----|---------|
|---6----|---4----|--------|---/9----|---------|
|---0----|---0----|---4----|---/7----|---/6----|

Ow no I should've kept my receipts
Cause the sandwich I bought
Yeah it's been off for a week
And 'low Tesco's stealing my money
When positivity seems hard to reach
I keep my head down and my mouth shut
Cause if you going through hell
We just keep going

Chorus
strum softly
|--------|--------|--------|--------|
|---4----|-/3/2---|---4----|--/9----|
|---3----|-/2/1---|---3----|--/8----|(x2)
|---4----|-/3/0---|---4----|--/9----|
|---2----|-/2/2---|---2----|--/7----|
|--------|--------|--------|--------|

You're easy
So easy
You're easy
Man just leave us alone
I'll be one minute on the phone


-IG Markyoverload
Tap to rate this tab
# A B C D E F G H I J K L M N O P Q R S T U V W X Y Z