Song name
# A B C D E F G H I J K L M N O P Q R S T U V W X Y Z

King Krule - Krockadile tab

Intro tab:

NOTE: this music is a bit different of "The Krockadile"

E|----------------------9--------------------------------|
B|--8---8-----7-------x-x------x-7----------7---7--------|
G|--7---7-----7-------x-x------x-7----------7---7--------|
D|--8---8-----7---------x--------7----------7---7--------|  2x
A|--7---7---------------x--------------------------------|
E|------------7---------7--------7-----x-6~--------------|

E|-----------------------14------------------------------|
B|--13---13-----12-----x--x----x-12--------------12---12-|
G|--12---12-----12-----x--x----x-12--------------12---12-|
D|--13---13-----12--------x------12--------------12---12-|
A|--12---12---------------x------------------------------|
E|--------------12-------12------12----x-11/12~----------|

E|-------------------------------------------------------------------|
B|--10---10-----12--x-12--x-x-12--x-12--x-x-12--x-12--x-x-12---12-12-|
G|---9----9-----11--x-11--x-x-11--x-11--x-x-11--x-11--x-x-11---11-11-|
D|--10---10------9--x--9--x-x--9--x--9--x-x--9--x--9--x-x--9----9--9-|
A|---9----9-----10--x-10--x-x-10--x-10--x-x-10--x-10--x-x-10---10-10-|
E|-------------------------------------------------------------------|
                                   be careful here
               |_____________________________________________________|

Chords:

Em7(b5) Bm7     Am7(b5)  Em7      F#m7(b5)  Gmaj7
E|----  E|----  E|-----  E|-----  E|-----   E|-----|
B|--8-  B|--7-  B|--13-  B|--12-  B|--10-   B|--12-|
G|--7-  G|--7-  G|--12-  G|--12-  G|---9-   G|--11-|
D|--8-  D|--7-  D|--13-  D|--12-  D|--10-   D|---9-|
A|--7-  A|----  A|--12-  A|-----  A|---9-   A|--10-|
E|----  E|--7-  E|-----  E|--12-  E|-----   E|-----|

There's nothing different until 1:49.
Tap to rate this tab
# A B C D E F G H I J K L M N O P Q R S T U V W X Y Z