Song name
# A B C D E F G H I J K L M N O P Q R S T U V W X Y Z

King Missile - Anywhere tab

-------------------------------------------------------------------------------
                             Anywhere - King Missile
-------------------------------------------------------------------------------
Tabbed by: Throwshapes


Intro is Played over G and Am
e|-------------------------------------------------3-----------------------------|
B|-------------------------------------------------3-----------------------------|
G|--7--4/5/4/5/4--2----4b-2----7--4/5/4-4b--2------0-----------------------------|
D|-------------------------------------------------0-----------------------------|
A|-------------------------------------------------2-----------------------------|
E|-------------------------------------------------3-----------------------------|

Guitar 2 Plays these chords during the Chorus
         C                          Esus  *(pick the Esus slightly different than C)
e|----------------------------------------------------------------------------|
B|-------1------------1--------------0--------------0-------------------------|
G|-----0---0--------0---0---------2----2---------2----2-----------------------|
D|---2-------2----2-------2------2-------2------2-------2---------------------|
A|-3------------3-------------0-0------------0-0------------------------------|
E|----------------------------------------------------------------------------|

Chords:
Verses: G Am
Chorus: C Esus

G    Am
G    Am

G          Am
I could be here
G          Am
I could be in a salad
G          Am      
I could be out of town
G             Am
I could be in paradise
C                   Esus
I could be anywhere (x2)

G5     F#5

Fill @ :41
e|---------------------------------------------------------------------------|
B|---------------------------------------------------------------------------|
G|---4/5/4/5/4/5/4-----------------------------------------------------------|
D|---------------------------------------------------------------------------|
A|---------------------------------------------------------------------------|
E|---------------------------------------------------------------------------|

G          Am
I could be near the refrigerator
G         Am     
I could be on the roof
G          Am  
I could be in Mesopatamia
G          Am
I could be back in the salad again
C              Esus
I could be anywhere (x3)


Fill @ 1:25
   G5    F#5            G5    F#5
e|---------------------------------------------------------------------------|
B|-8------------------8------------------------------------------------------|
G|---7--4/5/4/5/4-------7--4/5/4/5/4-----------------------------------------|
D|---------------------------------------------------------------------------|
A|---------------------------------------------------------------------------|
E|---------------------------------------------------------------------------|

G       Am          
I could be in Transit
G       Am         
I could be in bed
G          Am             
I could be incandescent
G          Am            G
I could be in I could be out
           Am              C      
It dosen't matter leave me alone
C              Esus
I could be anywhere (x4)
G5                             F#5
I could be back in the salad again...     *(play till the end)

Tap to rate this tab
# A B C D E F G H I J K L M N O P Q R S T U V W X Y Z