Song name
# A B C D E F G H I J K L M N O P Q R S T U V W X Y Z

King Of Fighters - Arashi No Saxophone 2 tab

L - tied note
By DarkJinS
--------------------0--3--------5-------------------|
-----------------1--------------------------5-------|
--------------2-------------------------------------|
----------------------------------------------------|
----------------------------------------------------|
----------------------------------------------------|


--2-------------------------------------------------|
-----------3--------------------3-------------------|
--------------------2-----------------------2-------|
----------------------------------------------------|
----------------------------------------------------|
----------------------------------------------------|


----------------------------------------------------|
--1--------3--------------------------------1-------|
--------------------------------------0--2----------|
-----------------------------------2----------------|
----------------------------------------------------|
----------------------------------------------------|


----------------------------------------------------|
--3--------1----------------------------------------|
----------------------------------------------------|
----------------------------------------------------|
----------------------------------------------------|
----------------------------------------------------|


--------------------0--3--------5-------------------|
-----------------1--------------------------5-------|
--------------2-------------------------------------|
----------------------------------------------------|
----------------------------------------------------|
----------------------------------------------------|


--2-------------------------------------------------|
-----------3--------------------3-----------3-------|
--------------------2-------------------------------|
----------------------------------------------------|
----------------------------------------------------|
----------------------------------------------------|


----------------------------------------------------|
--3--------1----------------------------------------|
----------------------------------------------------|
----------------------------------------------------|
----------------------------------------------------|
----------------------------------------------------|


----------------------------------------------------|
----------------------------------------------------|
--------------------------------------------0--2----|
----------------------------------------------------|
----------------------------------------------------|
----------------------------------------------------|


-----------0L----------0--------3L------------------|
--3-------------------------------------------------|
----------------------------------------------------|
----------------------------------------------------|
----------------------------------------------------|
----------------------------------------------------|


--3L----------3-----3-----------5-----------3-------|
----------------------------------------------------|
----------------------------------------------------|
----------------------------------------------------|
----------------------------------------------------|
----------------------------------------------------|


--2-------------------------------------------------|
-----------3L----------3----------------------------|
-----------------------------------------0--2-------|
--------------------------------------4-------------|
----------------------------------------------------|
----------------------------------------------------|


----------------------------------------------------|
--------------------------------3--------3----------|
--3--------2----------------------------------------|
--------------------3-------------------------------|
----------------------------------------------------|
----------------------------------------------------|


-----------0L----------0--------3L------------------|
--3-------------------------------------------------|
----------------------------------------------------|
----------------------------------------------------|
----------------------------------------------------|
----------------------------------------------------|


--3--------3-----5-----3----|
----------------------------|
----------------------------|
----------------------------|
----------------------------|
----------------------------|


--2-----------------------------------------5-------|
-----------3L----------3----------------------------|
----------------------------------------------------|
----------------------------------------------------|
----------------------------------------------------|
----------------------------------------------------|


--6--------5--------4-----------0-------------------|
--------------------------------------0--3----------|
----------------------------------------------------|
----------------------------------------------------|
----------------------------------------------------|
----------------------------------------------------|


--0L----------------------0-----3--------1----------|
----------------------------------------------------|
----------------------------------------------------|
----------------------------------------------------|
----------------------------------------------------|
----------------------------------------------------|


--0-------------------------|
-----------0-----1-----3----|
----------------------------|
----------------------------|
----------------------------|
----------------------------|


-----------0--------------------5-------------------|
--3-------------------------------------------------|
-----------------------------------------5----------|
----------------------------------------------------|
----------------------------------------------------|
----------------------------------------------------|


--------------------------------2-------------------|
--3--------1-----------------------------3----------|
--------------------2-------------------------------|
----------------------------------------------------|
----------------------------------------------------|
----------------------------------------------------|


--------------------------------1--------0----------|
--1L----------1-----1-------------------------------|
----------------------------------------------------|
----------------------------------------------------|
----------------------------------------------------|
----------------------------------------------------|


--------------------0-------------------------------|
--0L----------0-----------------3-----------0-------|
----------------------------------------------------|
----------------------------------------------------|
----------------------------------------------------|
----------------------------------------------------|


--------------------------------3-------------------|
--1--------3----------------------------------------|
----------------------------------------------------|
----------------------------------------------------|
----------------------------------------------------|
----------------------------------------------------|


--------------------------------------------0--3----|
-----------------------0-----------0--1--3----------|
--1--------------------------1--2-------------------|
-----2--4--6--7--6--7-------------------------------|
----------------------------------------------------|
----------------------------------------------------|


--5L----------------------5-----3--------1----------|
----------------------------------------------------|
----------------------------------------------------|
----------------------------------------------------|
----------------------------------------------------|
----------------------------------------------------|


--0-------------------------|
-----------0-----1-----3----|
----------------------------|
----------------------------|
----------------------------|
----------------------------|


-----------0--------------------5-------------------|
--3-------------------------------------------------|
-----------------------------------------5----------|
----------------------------------------------------|
----------------------------------------------------|
----------------------------------------------------|


--------------------------------2-------------------|
--3--------1-----------------------------3----------|
--------------------2-------------------------------|
----------------------------------------------------|
----------------------------------------------------|
----------------------------------------------------|


--------------------------------1--------0----------|
--1L----------1-----1-------------------------------|
----------------------------------------------------|
----------------------------------------------------|
----------------------------------------------------|
----------------------------------------------------|


--------------------0-------------------------------|
--0L----------0-----------------3-----------0-------|
----------------------------------------------------|
----------------------------------------------------|
----------------------------------------------------|
----------------------------------------------------|


--------------------------------3-------------------|
--1--------3----------------------------------------|
----------------------------------------------------|
----------------------------------------------------|
----------------------------------------------------|
----------------------------------------------------|


--4--------0----------------------------------------|
--------------------3--------0--------1--3----------|
----------------------------------------------------|
----------------------------------------------------|
----------------------------------------------------|
----------------------------------------------------|


-----------12---------------------------------------|
--1--------8----------------------------------------|
----------------------------------------------------|
----------------------------------------------------|
----------------------------------------------------|
----------------------------------------------------|
Tap to rate this tab
# A B C D E F G H I J K L M N O P Q R S T U V W X Y Z