Song name
# A B C D E F G H I J K L M N O P Q R S T U V W X Y Z

King Rooster - Derigibles tab

--------------------------------------------------------------------------
			     DERIGIBLES - King Rooster
--------------------------------------------------------------------------
Tabbed by: justin
Tuning:standard

check em out at www.myspace.com/officialkingrooster


Intro:
  F         A          A#         C
e|---------------------------------------------|
B|---------------------------------------------|
G|------2-------6----------7---------------9---|
D|----3-----------7----------8----------10-----| x3
A|--3---------7----------8-----------10--------|
E|1---------5----------6-----------8-----------|

  F          A          A#          C
e|----------------------------------8-------|
B|----------------------------------8-------|
G|------2-------6----------7--------9-------|
D|----3-----------7----------8------10------| x1
A|--3---------7----------8----------10------|
E|1---------5----------6------------8-------|


Verse: upstrokes - 4x per chord
       F     A     A#    C
e|-----1-----5-----6-----8----|
B|-----1-----5-----6-----8----|
G|-----2-----6-----7-----9----|
D|-----3-----7-----8-----10---|  x4
A|-----3-----7-----8-----10---|
E|-----1-----5-----6-----8----|


During horn line: upstrokes
       F             A#        C
e|-----1-------------6---------8---------|
B|-----1-------------6---------8---------|
G|-----2-------------7---------9---------|
D|-----3--x8---------8--x4-----10--x4----| x2
A|-----3-------------8---------10--------|
E|-----1-------------6---------8---------|


Reggae bridge:
       F             A#        C
e|-----1-------------6---------8---------|
B|-----1-------------6---------8---------|
G|-----2-------------7---------9---------|
D|-----3--x4---------8--x2-----10--x2----| x2
A|-----3-------------8---------10--------|
E|-----1-------------6---------8---------|

Jazz part: improv in Fmaj (progression is F D G C)

=============================================================
Tap to rate this tab
 
# A B C D E F G H I J K L M N O P Q R S T U V W X Y Z