Song name
# A B C D E F G H I J K L M N O P Q R S T U V W X Y Z

King Rooster - The Flying Skatelli Brothers tab

Tabbed by: nicholas


Tuning:standard

intro
e|---5----5-----5----5-------------|
B|---6----6-----5----5-------------|
G|---7----7-----6----6-------------|
D|---7----7-----7----7-------------|
A|---5----5-----7----7------12/----|
E|--------------5----5------12/----|


upstrokes (FAST!)
e|---5---------5---------|
B|---6---------5---------|
G|---7---x16---6--x16----|
D|---7---------7---------|
A|---5---------7---------|
E|-------------5---------|


fast drum part: just arpeggiate a Dmin and an Amaj


"im running and im running":
e|--------------------------------------|
B|--------------------------------------|
G|7----------------------------3--------|
D|7-x8-----5---------3---------3--x8----|
A|5--------5--x8-----3--x8-----1--------|
E|---------3---------1------------------|


horns come in: (upstrokes x2 each)
e|-5------5------1-------1-----|
B|-6------5------1-------3-----|
G|-7------6------4-------3-----|
D|-7------5------3-------3-----|
A|-5------5------3-------1-----|
E|--------3------1-------------|


next part: play the power chords from before again w/palm mutes (D, G, F, A#)

outro: same power chords again but each one 3x. listen to song for rhythm

end on a Dmin
Tap to rate this tab
# A B C D E F G H I J K L M N O P Q R S T U V W X Y Z