Song name
# A B C D E F G H I J K L M N O P Q R S T U V W X Y Z

King Sized Braces - Lets Get Pissed tab

http://www.users.nac.net/squiggy/024.html

  intro    (lets get pissed)
E-----------------------------|
B-----------------------------|
G-----------------------------|
D--5~----10~----5~------------| x4
A--5~----10~----5~------------|
D--3~-----8~----3~------------|


   verse
E------------------------------------------|
B------------------------------------------|
G------------------------------------------|
D--5-555555-10-101010101010--5-555555------| x4
A--5-555555-10-101010101010--5-555555------|
E--3-333333--8--8-8-8-8-8-8--3-333333------|

E------------------------------------------|
B------------------------------------------|
G------------------------------------------|
D--5-555555-10-101010101010--5-555555------| x4
A--5-555555-10-101010101010--5-555555------|
E--3-333333--8--8-8-8-8-8-8--3-333333------|
  ......................................

   chorus
E------------------------------------|
B------------------------------------|
G--7-77777--5-55555------------------|
D--7-77777--5-55555--5-55555---------|x4
A--5-55555--3-33333--5-55555---------|
E--------------------3-33333---------|

   verse
E---------------------------------------|
B---------------------------------------|
G---------------------------------------|
D--5-555555-10-101010101010--5-555555---|x 4
A--5-555555-10-101010101010--5-555555---|
E--3-333333--8--8-8-8-8-8-8--3-333333---|


E----------------------------------------|
B----------------------------------------|
G----------------------------------------|
D--5-555555-10-101010101010--5-555555----|x4
A--5-555555-10-101010101010--5-555555----|
E--3-333333--8--8-8-8-8-8-8--3-333333----|
   .....................................

  chorus
E----------------------------------------|
B----------------------------------------|
G--7-77777--5-55555----------------------|
D--7-77777--5-55555--5-55555-------------|x4
A--5-55555--3-33333--5-55555-------------|
E--------------------3-33333-------------|


   intro
E-----------------------------------|
B-----------------------------------|
G-----------------------------------|
D--5~----10~-----5~-----------------|x4
A--5~----10~-----5~-----------------|
E--3~-----8~-----3~-----------------|


   verse
E---------------------------------------|
B---------------------------------------|
G---------------------------------------|
D--5-555555-10-101010101010--5-555555---|x4
A--5-555555-10-101010101010--5-555555---|
E--3-333333--8--8-8-8-8-8-8--3-333333---|

   outro
E-------------------------------|
B-------------------------------|
G-------------------------------|
D--5~----10~-----5~-------------|x1
A--5~----10~-----5~-------------|
E--3~-----8~-----3~-------------|
Tap to rate this tab
 
# A B C D E F G H I J K L M N O P Q R S T U V W X Y Z