Song name
# A B C D E F G H I J K L M N O P Q R S T U V W X Y Z

King Tuff - Bad Thing tab

So this is a really cool song off King Tuff's eponymous 2012 album.
It's really just the one riff split by a solo in the middle.

Riff: play this through the whole song basically, except the solo
(lightly pm'd-----------------------------------|
e|-----------------------------------------------|
B|-----------------------------------------------|
G|-----------------------------------------------|
D|-2-2-2-4-4-7-7-11-11-11-11-11-11-11-11-11------|
A|-0-0-0-0-0-0-0-0--0--0--0--0--0--0--0--0-------|(x3)
E|-----------------------------------------------|

e|---------------------------------|
B|---------------------------------|
G|-11-1111-9--9-9--7--7-7-7-7-7-7--|
D|-11-1111-9--9-9--7--7-7-7-7-7-7--|
A|-9--9-9--7--7-7--5--5-5-5-5-5-5--|
E|-9--9-9--7--7-7--5--5-5-5-5-5-5--|
(listen to the song for the proper rhythm)

solo:

G|--4-6-9--6--4--1-1/6--4----4-6-9--6--4--1--4----
(then)
e|----------------------------------------------------------|
B|----------------------------------------------------------|
G|--4-6-9--6--4--1-1/6--4---11-1111-9--9-9--7--7-7-7-7-7-7--|
D|--------------------------11-1111-9--9-9--7--7-7-7-7-7-7--|
A|--------------------------9--9-9--7--7-7--5--5-5-5-5-5-5--|
E|--------------------------9--9-9--7--7-7--5--5-5-5-5-5-5--|


So there you go, pretty easy!
Tap to rate this tab
 
# A B C D E F G H I J K L M N O P Q R S T U V W X Y Z