Song name
# A B C D E F G H I J K L M N O P Q R S T U V W X Y Z

Kingbaby - Mercedes Benz tab

mercedes benz


kingbaby


TRANSCRIBED BY RUDY GUZMAN


guzman_84@hotmail.com


                                               
e:-------------------------------------------5-5-|
B:----------------------------3-3------------5-5-|
G:-2-2------------------------2-2-------2-2------|
D:-2-2------2h4h5-4p2-4p2-----0-0-------2-2------|
A:-0-0--2h4---------------4p2---------0-0-0------|
E:--------------------------------0h2------------|

e:-------------------------------------------|
B:-------------------------------------------|
G:-2-2-----------------------------------1-1-|
D:-2-2------2h4h5-4p2-4p2------2------2--2-2-|
A:-0-0--2h4---------------4p2--2------2------|
E:-----------------------------0-------------|

e:-------------------------------------------5-5-|
B:----------------------------3-3------------5-5-|
G:-2-2------------------------2-2-------2-2------|
D:-2-2------2h4h5-4p2-4p2-----0-0-------2-2------|
A:-0-0--2h4---------------4p2---------0-0-0------|
E:--------------------------------0h2------------|

e:-------------------------------------------|
B:-------------------------------------------|
G:-2-2---------------------------------------|
D:-2-2------2h4h5-4p2-4p2------2-------------|
A:-0-0--2h4---------------4p2--2----5--7-----|
E:-----------------------------0----3--5-----|

verse
e:----------------------------------------------------------------------------------------|
B:----------1---1-1----------3---------------3---3-3--------------------------------------|
G:----------2---2-2----------2-----2-----2---2---2-2--------------------------------------|
D:----------2----------------------2-----2---0--------0h2h3p2p0------------2----2---2-----|
A:----------0--------------0-----0----0-------------------------3p2p0------2--2-2-2-2-----|
E:-------------------0h2h3--------------------------------------------3p0--0--0---0----12/|

                                                      color tv yeah..
e:-----------------------------------------------------------------------|
B:------3---3------------------------------------------------------------|
G:-2----2---2--------2-2----2---2----2-2--------------2------------------|
D:-2--0---0----------2-2----2---2----2-2-----2--------2------------------|
A:-0-----------------0-0--0---0----0------0--2--------0------------------|
E:-------------0h2h3-------------------------0--0h2h3-----------12/------|

e:-------------------------------------------5-5-|
B:----------------------------3-3------------5-5-|
G:-2-2------------------------2-2-------2-2------|
D:-2-2------2h4h5-4p2-4p2-----0-0-------2-2------|
A:-0-0--2h4---------------4p2---------0-0-0------|
E:--------------------------------0h2------------|

e:-------------------------------------------|
B:-------------------------------------------|
G:-2-2-----------------------------------1-1-|
D:-2-2------2h4h5-4p2-4p2------2------2--2-2-|
A:-0-0--2h4---------------4p2--2------2------|
E:-----------------------------0-------------|

e:-------------------------------------------5-5-|
B:----------------------------3-3------------5-5-|
G:-2-2------------------------2-2-------2-2------|
D:-2-2------2h4h5-4p2-4p2-----0-0-------2-2------|
A:-0-0--2h4---------------4p2---------0-0-0------|
E:--------------------------------0h2------------|

e:-------------------------------------------|
B:-------------------------------------------|
G:-2-2---------------------------------------|
D:-2-2------2h4h5-4p2-4p2------2-------------|
A:-0-0--2h4---------------4p2--2----5--7-----|
E:-----------------------------0----3--5-----|

verse
e:-----------------------------------------------------------------|
B:-----------3--3--------------------------------------------------|
G:-----------2--2----------2-----2-2-------------------------------|
D:-----------0--0----------2-----2-2--2------------2----2---2------|
A:-------0-----------------0-----0-0----3p2p0------2--2-2-2-2------|
E:-0h2h3-----------0h2h3----------------------3p0--0--0---0----12/-|

                                                         night on the town....
e:---------------------------------------------------------------------------------------|
B:------3---3--------3-3---------------------2-------------------------------------------|
G:-2----2---2--------2-2---------2----2-2----2------------------------2------------------|
D:-2--0---0----------0-0---------2----2-2----2--2------------2--------2------------------|
A:-0-----------0h2h3-------------0---------0------3p2p0------2--------0------------------|
E:-----------------------0h2h3--------------------------3p0--0--0h2h3-----------12/------|

e:-------------------------------------------5-5-|
B:----------------------------3-3------------5-5-|
G:-2-2------------------------2-2-------2-2------|
D:-2-2------2h4h5-4p2-4p2-----0-0-------2-2------|
A:-0-0--2h4---------------4p2---------0-0-0------|
E:--------------------------------0h2------------|

e:-------------------------------------------|
B:-------------------------------------------|
G:-2-2-----------------------------------1-1-|
D:-2-2------2h4h5-4p2-4p2------2------2--2-2-|
A:-0-0--2h4---------------4p2--2------2------|
E:-----------------------------0-------------|

e:-------------------------------------------5-5-|
B:----------------------------3-3------------5-5-|
G:-2-2------------------------2-2-------2-2------|
D:-2-2------2h4h5-4p2-4p2-----0-0-------2-2------|
A:-0-0--2h4---------------4p2---------0-0-0------|
E:--------------------------------0h2------------|

e:-------------------------------------------|
B:-------------------------------------------|
G:-2-2---------------------------------------|
D:-2-2------2h4h5-4p2-4p2------2-------------|
A:-0-0--2h4---------------4p2--2----5--7-----|
E:-----------------------------0----3--5-----|



http://www.kingbabymusic.com/      website
http://www.myspace.com/kingbaby    myspace

hillo son mex

22/02/10
Tap to rate this tab
 
# A B C D E F G H I J K L M N O P Q R S T U V W X Y Z