Song name
# A B C D E F G H I J K L M N O P Q R S T U V W X Y Z

Kingdom Hearts - Hikari tab

e|----------------|-----------------------------------------------------------|
B|--3-1-----------|------------4-3--------6-4-3-1-1-3-4-3----3-4-3-1~---------|
G|0-----3-2-3-----|------3-2-3-----3-2-3-5---------------0-3------------------|
D|----------------|-3(x4)-----------------------------------------------------|
A|----------------|-----------------------------------------------------------|
E|--------------x3|-----------------------------------------------------------|

e|----------------------------------------------------------------------------|
B|----------------------------------------------------------------------------|
G|-2-2-2-2-3-3-3--2-2-2-2-3-3-3-5-0--2-2-2-2-3-3-5-3^2^3^2^3^2--2-2-2-2-3-3-3~|
D|3--------------3------------------3-------------------------3---------------|
A|----------------------------------------------------------------------------|
E|----------------------------------------------------------------------------|

e|----------------------------------------------------------------------------|
B|----------------------------------------------------------------------------|
G|----------------------------------------------------------------------------|
D|5-4-5-4-5-4-5-7-8--4-3-4-3-4-3-4-6-7--5-5-4-5-5-4-5-7-8-10-12-5-5-4-12-7-6-7|
A|----------------------------------------------------------------------------|
E|----------------------------------------------------------------------------|

e|----------------------------------------------------------------------------|
B|----------------------------------------------------------------------------|
G|----------------------------------------------------------------------------|
D|---6-7-9-10-7-7-7-9-10-15-7-7-6-15--8-7-8-7-8-11-7-7-7-11-------------------|
A|----------------------------------------------------------------------------|
E|----------------------------------------------------------------------------|
edit the first part if u want 

e|-------------|--------------------------------------------------------------|
B|-3-1---------|-------------4-2--------6-4-3-1-1-3-4-3-----3-4-3-1~----------|
G|0----3-2-3---|-------3-2-3-----3-2-3-5----------------0-3-------------------|
D|-------------|3(x4)---------------------------------------------------------|
A|-------------|--------------------------------------------------------------|
E|-----------x3|--------------------------------------------------------------|

e|1--------1-1-3-1-------1--------------1-------------------------------------|
B|-----------------4-3-4----------4-3-4---3-1---------------------------------|
G|--3-3--3-----------------3-3-0-3------------3-2-3---2-3---------------------|
D|--------------------------------------------------3-----3-1-0-1-0-1-3-3-----|
A|----------------------------------------------------------------------------|
E|----------------------------------------------------------------------------|

e|----------------------------------------------------------------------------|
B|-----------3-1-4-3----------------------------------------------------------|
G|-------3--------------------------------------------------------------------|
D|-5-3-5---3------------------------------------------------------------------|
A|----------------------------------------------------------------------------|
E|----------------------------------------------------------------------------|

e|-------------|--------------------------------------------------------------|
B|-3-1---------|-------------4-2--------6-4-3-1-1-3-4-3-----3-4-3-1~----------|
G|0----3-2-3---|-------3-2-3-----3-2-3-5----------------0-3-------------------|
D|-------------|3(x4)---------------------------------------------------------|
A|-------------|--------------------------------------------------------------|
E|-----------x3|--------------------------------------------------------------|
Tap to rate this tab
 
# A B C D E F G H I J K L M N O P Q R S T U V W X Y Z