Kingdom Hearts - Traverse Town tab

Kingdom Hearts - Traverse Town
Standard E

E--------------------------------------------|
B-----------1-0---0--------------------------|
G-0-------2-----2----0-------0---2---0---0-2-|
D-----0----------------0---2---4---2---4-----| X2
A---2---------------2------3---5---3---5-----|
E-3---------------3--------------------------|


---------------------1-------------------------------------|
-----------3-1---------1-----3-----------------------------|
-3-------------2---------2-------5---3-------5---3---------|
-------3---------3---------3-------------7-----------7---0-|
-1---1-------------3-----------5---5---5---5---5---5---5---|
---1---------1---------------3-----------------------------|


-----------------------------------------|
-----------------------------------------|
-0-----0-2-3-2---5-3-2-0-----------------|
-1---3-------3-------------0---------0---|
-------------------------2---0-----2---0-|
-----------------------3---------3-------|
Tap to rate this tab
 
# A B C D E F G H I J K L M N O P Q R S T U V W X Y Z