Song name
# A B C D E F G H I J K L M N O P Q R S T U V W X Y Z

Kingdom Hearts - Dearly Beloved tab

Dearly Beloved ~Reprise~
From Kingdom Hearts 2
By Yoko SHIMOMURA
From the Piano Solo book, Kingdom Hearts 2.
2005 By WALT DISNEY MUSIC COMPANY
Rights for Japan controlled by YAMAHA MUSIC PUBLISING, INC.

Transcribed to Guitar by: Ian M. McNear


Main Part, Play Twice
|----------------------9------------------------9----10----9----14----12----10----9----------------|
|--12------------------------12----------------------------------------------------------12----10--|
|---------11-----9-------------------11-----9------------------------------------------------------|
|--------------------------------------------------------------------------------------------------|
|--------------------------------------------------------------------------------------------------|
|--------------------------------------------------------------------------------------------------|

Second Part, Play Once
|------------9----------------------------------------------------------------------------------9--|
|---12-----------10----12-----------------------------10---------------------------12--------10----|
|--------------------------------11--------9----11--------------12--11--9--11----------------------|
|--------------------------------------------------------------------------------------------------|
|--------------------------------------------------------------------------------------------------|
|--------------------------------------------------------------------------------------------------|


|--------------------------------------------------------------------------------------------------|
|--12--------------------------------------------------12------------------------------------------|
|---------11--------9--------------------------11-----------11--------9----------------------------|
|--------------------------12--11--10---------------------------------------12---------------------|
|--------------------------------------------------------------------------------------------------|
|--------------------------------------------------------------------------------------------------|

I hope you enjoy playing this, its my first tab, but I'm confident its accurate.
Tap to rate this tab
# A B C D E F G H I J K L M N O P Q R S T U V W X Y Z