Song name
# A B C D E F G H I J K L M N O P Q R S T U V W X Y Z

Kingdom Hearts - Passion After The Battle tab

-------------------------------------------------------------------------------
			     Passion~after the Battle~/ Kingdom Hearts OST
-------------------------------------------------------------------------------
Tabbed by: Little_Buster
Email: Fullmetal_rocker2000@yahoo.com

Tuning:Standard

An alternate way of playing this if you want an Chunky/Metal sound is to use Pinch harmonics 
Randomly while playing

e|---14--21-------------------------12-16-19---------------------------------|
B|-----------22---------------------------------17--16-----------------------|
G|---------------------------------------------------------------------------|
D|---------------------------------------------------------------------------|
A|---------------------------------------------------------------------------|
E|---------------------------------------------------------------------------|

e|---------16----------17-16-17-------------------19-------------------------|
B|----17------------------------19-19-19-19-19-19----------------------------|
G|---------------------------------------------------------------------------|
D|---------------------------------------------------------------------------|
A|---------------------------------------------------------------------------|
E|---------------------------------------------------------------------------|

Bass Enters

G|---------------------------------------------------------------------------|
D|---------------------------------------------------------------------------|
A|---4-4--7--2--4-4--7---2---------------------------------------------------|
E|---------------------------------------------------------------------------|

Guitar

e|---------------------------17-16-------------------------16-19-------------|
B|----19------------------17-------17--19--21-19-----17-17--------17-16------|
G|---------------------------------------------------------------------------|
D|---------------------------------------------------------------------------|
A|---------------------------------------------------------------------------|
E|---------------------------------------------------------------------------|

e|---------------------------------------------------------------------------|
B|-17--19-21-----------------------------------------------------------------|
G|---------------------------------------------------------------------------|
D|---------------------------------------------------------------------------|
A|---------------------------------------------------------------------------|
E|---------------------------------------------------------------------------|


| /  slide up
| \  slide down
| h  hammer-on
| p  pull-off
| ~  vibrato
| +  harmonic
| x  Mute note
===============================================================================
Tap to rate this tab
# A B C D E F G H I J K L M N O P Q R S T U V W X Y Z