Song name
# A B C D E F G H I J K L M N O P Q R S T U V W X Y Z

Kingdom Hearts - Kairis Theme tab

Alrighty. This is my first time. Hope this helps.

Kingdom Hearts - Kairi's Theme


E|------3-5------------3-5--------------------------------------------|
B|--4-5-----5-4----4-5-----4-2----4--2-4-5--2--0-0--------------------|
G|--------------------------------------------------------------------|
D|--------------------------------------------------------------------|
A|--------------------------------------------------------------------|
E|--------------------------------------------------------------------|


E|--------4-2-0-----------4-2-0---------------------------------------|
B|------2-------4-0-----2-------4-2-----------------------------------|
G|--2-2-------------2-2-----------------------------------------------|
D|--------------------------------------------------------------------|
A|--------------------------------------------------------------------|
E|--------------------------------------------------------------------|




and it repeats.
Tap to rate this tab
# A B C D E F G H I J K L M N O P Q R S T U V W X Y Z