Guitaretab - guitar tabs
Song name
# A B C D E F G H I J K L M N O P Q R S T U V W X Y Z

Kings Of Convenience - Cayman Islands tab

Artist: Kings of Convenience
Song: Cayman Islands
Standard Tuning: EAGDBe

NOTE: this is not EXACTLY how they play it. this version sounds very similar to the
It sounds very nice by itself, but if you play along with the song they have slightly
picking. Play around with it and you can probably get it pretty close to how they really 
it.

Capo on II.
[Relitive to capo]

e|-0--------------------0-----------------|
B|-----------3------------------3---------|
G|---------2---2---2----------2---2---2---|
D|------3-------3---3------3-------3---3--|
A|----------------------------------------|
E|-1--------------------1-----------------|

e|-0------------------0------------------|
B|-------5-------------------5-----------|
G|-----4---4---4-----------4---4---0-----|
D|---5-------5---5-------5-------5----5--|
A|---------------------------------------|
E|-3------------------3------------------|
[ Tab from: http://www.guitaretab.com/k/kings-of-convenience/117482.html ]
e|----------------------------------------------------------------|
B|-0------0------------0------0----------0-----0---------1---3----|
G|------0---0---0-----------0---0---0--------0---0---0------------|
D|----2-------2---2-------2-------2--------2-------2---2----------|
A|-3-------------------3-----------------0------------------------|
E|----------------------------------------------------------------|

Another thing, it sounds better if you play it fast;)
If these notes are too hard to get your fingers on, or if the picking too tricky, here's 
less accurate but much easier version:

e|-0-0-0-----0-0-0-----0-0-0----0-0-0------------------------------|
B|-------3--------3----------3--------3--0-0---0-0--0-0-0-1-3------|
G|-------------------------------------------0---------------------|
D|-----------------------------------------------------------------|
A|---------------------------------------3-----3----3--------------|
E|-1---------1---------3--------3----------------------------------|

it is much less accurate, so...

The first on is the intro and the first section/verse. repeat it a couple of times, and 
rest of the song builds arounds these notes. I donít have the rest yet, but when I do it 
put it up.

Hope it works out
Apollo
Related for Cayman Islands tab