Song name
# A B C D E F G H I J K L M N O P Q R S T U V W X Y Z

Kings Of Convenience - Girl From Back Then tab

This is the whole song, and it is so easy. Enjoy it! 

e-|-----------------|---------------|----------------|-----------------|
B-|---0-x-0---0-x-0-|--6-x-6--6-x-6-|--0-x-0---0-x-0-|---7-x-7---2-x-4-|
G-|---3-x-3---3-x-3-|--6-x-6--6-x-6-|--4-x-4---4-x-4-|---6-x-6---3-x-3-|
D-|---4-x-4---4-x-4-|---------------|--4-x-4---4-x-4-|---8-x-8---4-x-2-|
A-|---------2-------|-6------4------|--------2-------|-6---------------|
E-|-4---------------|---------------|-0--------------|---------2-------|

e-|-----------------|---------------|----------------|-----------------|
B-|---0-x-0---0-x-0-|--6-x-6--6-x-6-|--0-x-0---0-x-0-|---7---7---2---4-|
G-|---3-x-3---3-x-3-|--6-x-6--6-x-6-|--4-x-4---4-x-4-|---6---6---3---3-|
D-|---4-x-4---4-x-4-|---------------|--4-x-4---4-x-4-|---8---8---4---2-|
A-|---------2-------|-6------4------|--------2-------|---6---6---------|
E-|-4---------------|---------------|-0--------------|-----------2---2-|


And I sat down and said
"I don't want to suffer."
But she told me
she had nothing to offer,
no more.
I sat down and said
"I don't want to suffer."
But she told me
she had nothing to offer,
no more.
Now that I know that
I did not know you then...


It is a pretty song from the album Quiet is the new loud by Kings Of Convenience. 
Tabbed by Emma Islas
Tap to rate this tab
# A B C D E F G H I J K L M N O P Q R S T U V W X Y Z