Song name
# A B C D E F G H I J K L M N O P Q R S T U V W X Y Z

Kings Of Convenience - Homesick tab

Homesick - Kings of Convenience
Standard tuning capo 1

Intro(2x) - Instrumental
F |-----3--------0--------0-----------------0-----------------3--------3-----|
C |-------1--------4--------1----0------------1----0------------1--------1---|
Ab|---0----0---0----0---2----2-----4------2----2-----4------0----0---0----0--|
Eb|----------------------------------5-----------------5---------------------|
Bb|-3--------2--------0-----------------------------------3--------3---------|
F |----------------------------3------3-1--------3------3--------------------|


Verse(2x)
F |-----3--------0--------0--------------------------3--------3--------3--------------|
C |-------1--------4--------1----0---------1---3-------1--------1--------1-----1----1-|
Ab|---0----0---0----0---2----2-----4------2--(4)---0--------0--------0--------2----0--|
Eb|----------------------------------5--------------------------------------3----2----|
Bb|-3--------2--------0------0-------------------3------3-3------3-3------3-----------|
F |----------------------------3------3-1----3----------------------------------------|

F |-----1--------1--------0--------0--------0-----------------0--------0--------0-------------|
C |-------3--------3--------1--------1--------1----0------------1--------1--------1----0------|
Ab|---2----2---2----2---2----2---2----2---2----2-----4------2--------2--------2----------4----|
Eb|-0--------0-----------------------------------------5-----------------------------------5--|
Bb|-------------------0--------0--------0------0--------0----------3------3--------0--------0-|
F |----------------------------------------------3--------1------1----------1--------3--------|

Verse 1
I'll lose some sales and my boss won't be happy,
but I can't stop listening to the sound
of two soft voices blended in perfection
from the reels of this record that I found.

Every day there's a boy in the mirror
asking me "What are you doing here?"
Finding all my previous motives
growing increasingly unclear.

Bridge - Instrumental
F |-----3--------0--------0-----------------0-----------------3--------3----|
C |-------1--------4--------1----0------------1----0------------1--------1--|
Ab|---0----0---0----0---2----2-----4------2----------4------0----0---0----0-|
Eb|----------------------------------5-----------------5--------------------|
Bb|-3------3-2------2-0------0--------0--------0--------0-3--------3--------|
F |----------------------------3--------1--------3--------------------------|

Verse(2x)

Verse 2
I've traveled far, and I've burned all the bridges.
I believed as soon as I hit land
all the other options held before me
would wither in the light of my plan.

So I'll lose some sales and my boss won't be happy,
but there's only one thing on my mind:
Searching boxes underneath the counter on a chance
that on a tape I'd find...

Outro
F |---------0---------0---------------0---------0-------|
C |-------6---6-----6---6-----------6---6-----6---6-----|
Ab|-----5---------5-------5-------5---------5-------5---|
Eb|---7---------7-----------7---7---------7-----------7-|
Bb|-5-------------------------5-------------------------|
F |-----------------------------------------------------|

... a song for....

F |---------------0--------0--------0--------0------------|
C |----1------------1--------1--------1--------1----------|
Ab|---2-----4---2--------2--------2--------2--------------|
Eb|--------0----------------------------------------------|
Bb|-0------------------3------3----------3------3---------|
F |------3----1------1----------1------1------------------|

...someone I need somewhere...

Intro(2x) (G formation on the last chord the first time)
... to long for.

F |-----0--------0--------0--------0----|
C |-------1--------1--------1--------1--|
Ab|---2--------2--------2--------2------|
Eb|-------------------------------------|
Bb|----------3------3----------3------3-|
F |-1------1----------1------1----------|

Homesick....

F |-----0---------0--------0--------0--------0----------------------------|
C |-------1---------1--------1--------1--------1--------------------------|
Ab|---2---------2--------2--------2--------2------------------------------|
Eb|-----------------------------------------------------------------------|
Bb|-3------------------3------3----------3------3-------------------------|
F |---------3-1------1----------1------1----------------------------------|

...'cause I no longer know...

Intro(1x)
... where home is.

End with:
F |---------0--3---|
C |------01--------|
Ab|----0-----------|
Eb|----------------|
Bb|-23-------------|
F |----------------|

tabbed by: connermcd
Tap to rate this tab
# A B C D E F G H I J K L M N O P Q R S T U V W X Y Z