Song name
# A B C D E F G H I J K L M N O P Q R S T U V W X Y Z

Kings Of Convenience - Renegade tab

			Renegade - Kings Of Convenience
Tabbed by:ERnoises
Email: er_134@hotmail.com

Tuning:standard

here's the intro only,I still can't find the chords but they must be anywhere =)


e|-------------6------3------------------------------------------------------|
B|---1----------------------1--------3------1/3-----4----3----1--------------|
G|---------------------------------------------------------------------------|
D|-------------8------5------------------------------------------------------|
A|---3----------------------3--------5------3/5-----6----5----3--------------|
E|---------------------------------------------------------------------------|

e|----6------3------------------6------3-----1-------------------------------|
B|----------------1-------3----------------------4---3/1---------------------|
G|---------------------------------------------------------------------------|
D|----8------5------------------8------5-----3-------------------------------|
A|----------------3-------5----------------------6---5/3---------------------|
E|---------------------------------------------------------------------------|

e|-------------6------3------------------------------------------------------|
B|---1----------------------1--------3------1/3-----4----3----1--------------|
G|---------------------------------------------------------------------------|
D|-------------8------5------------------------------------------------------|
A|---3----------------------3--------5------3/5-----6----5----3--------------|
E|---------------------------------------------------------------------------|

e|----6------3------------------6/3-------------------------------------10---|
B|----------------------------------------------------8-----------8----------|
G|-----------------------------------------5---8--------------8--------------|
D|----8------5------------------8/5------------------------------------------|
A|---------------------------------------------------------------------------|
E|---------------------------------------------------------------------------|


I'll leave this part that guitar plays on the chorus too

e|---------------------------------------------------------------------------|
B|------8---8---8---8------3---------3--------3---------3--------4--------6--|
G|----0---0---0---0---0--------0----------0-------0----------0---------0-----|
D|---------------------------------------------------------------------------|
A|---------------------------------------------------------------------------|
E|---------------------------------------------------------------------------|

in the last part of the song this section goes with this variation

e|--------------------------------------------------1-------------3----------|
B|-------1--------1----------1----------1------------------------------------|
G|---0--------0--------0-----------0-----------0------------0----------------|
D|---------------------------------------------------------------------------|
A|---------------------------------------------------------------------------|
E|---------------------------------------------------------------------------|

times are not tabbed, so you must listen to the song to get how many times play and such
Tap to rate this tab
# A B C D E F G H I J K L M N O P Q R S T U V W X Y Z