Song name
# A B C D E F G H I J K L M N O P Q R S T U V W X Y Z

Kings Of Convenience - Singing Softly To Me tab

------------|   ----------------------|
---2----2-2-|   ---2----2-2---2---7-7-|
---2----2-2-|x2 ---2----2-2---2---6-6-|
------------|   ------2---------------|
------2-----|   -4---4------4-----6-6-|
-4---4------|   ----------------------|

------------|   ----------------------|
---2----2-2-|   ---2----2-2---2---7-7-|
---2----2-2-|x2 ---2----2-2---2---6-6-|
------------|   ------2---------------|
------2-----|   -4---4------4-----6-6-|
-4---4------|   ----------------------|

------------|   ----------------------|
---2----2-2-|   ---2----2-2---2---7-7-|
---2----2-2-|x2 ---2----2-2---2---6-6-|
------------|   ------2---------------|
------2-----|   -4---4------4-----6-6-|
-4---4------|   ----------------------|

------------|   ----------------------|
---2----2-2-|   ---2----2-2---2---7-7-|
---2----2-2-|x2 ---2----2-2---2---6-6-|
------------|   ------2---------------|
------2-----|   -4---4------4-----6-6-|
-4---4------|   ----------------------|
Tap to rate this tab
 
# A B C D E F G H I J K L M N O P Q R S T U V W X Y Z