Song name
# A B C D E F G H I J K L M N O P Q R S T U V W X Y Z

Kings Of Convenience - I Dont Know What I Can Save You From tab

I Don't Know What I Can Save You From   by   Kings of Convenience

Tabbed by:lrcruzg@gmail.com

It is played in standard tuning
this are the original chords played by Kings Of Convenience   
Eirik and Erlend  play it without a capo 

Erlend guitar(strumming not shown)

Intro

E----------5--3---|
B---10--7--7--3---|
G---9---6--6--4---| 
D---0---0--7--5---|
A---9---5-----5---|
E---10--7---------|

then play it  after they sing      

said "I don't know what I can save you from".
I don't know what I can save you from.

(strumming not shown)
E---7------|
B---8--11--|
G---7--10--| 
D---9--11--|
A---7------|
E----------|
|
Eirik guitar

E-----------------------------|----------------------------|
B-----------------------------|----------------------------|
G----------------12-10--------|---------------12-10--------|
D-------------13-------13-12--|--------10--13-------13-12--|
A------10-13------------------|--10-13---------------------|
E---11------------------------|----------------------------|

|-------------------------------|------------------|
|-------------------------------|------------------|
|---------------10--------------|-----------10-----|
|--------10--12----13-12----10--|--10-12-13----12--|
|--10-13-----------------13-----|------------------|
|-------------------------------|------------------|
Tap to rate this tab
# A B C D E F G H I J K L M N O P Q R S T U V W X Y Z