Song name
# A B C D E F G H I J K L M N O P Q R S T U V W X Y Z

Kings Of Convenience - Know How tab

                             Kings Of Convenience
                                   Know How
Standard tuning
Booth guitars capo on 6 fret

(X) strings mute(percussive)

Eirick guitar(nylon strings)

       X       X       X       X     X         X       X       X  
e|------------------------------------------------------------------|
B|-----------5---5-------5---5---------------0---0-------0---0---0--|
G|-----------0---0-------0---0---------------6---6-------6---6---0--|
D|-----------3---3-------3---3---------------7---7-------7---7---0--|
A|---------2---------2-----2-------------7-----------7-----7--------|
E|-0-------------------------------5--------------------------------|
 
       X       X       X       X     X        X          
e|-----------------------------------------------0-----0-----0----0---|
B|-----------0---0-------0---0-------------0-----0-----0-----0----0---|
G|-----------2---2-------2---2-------------0-----0-----4-----2p0------|
D|-----------2---2-------2---2-----------4---------4------------------|
A|--------0----------0-----0------5-----------------------------------|
E|-2------------------------------------------------------------------|

Erlend guitar(steel strings)

e|--------7-|       e|-------5--3--5-|
B|-----0----|       B|----0----------|
G|--7-------|       G|-7-------------|
D|----------|  x3   D|---------------|
A|----------|       A|---------------|
E|----------|       E|---------------|

e|-------2-|       e|-------0-----0-|
B|----0----|       B|----0-----3----|
G|-6-------|       G|-6-------------| 
D|---------|  x3   D|---------------|
A|---------|       A|---------------| 
E|---------|       E|---------------|  

e|-------5-|      e|-------3--2--3-|
B|----0----|      B|----0----------|
G|-6-------|      G|-6-------------|
D|---------| X3   D|---------------|
A|---------|      A|---------------|
E|---------|      E|---------------|


e|-------2-|
B|----0----|
G|-4-------|
D|---------|  x2
A|---------|
E|---------|

e|-------0-|
B|----0----|
G|-4-------|
D|---------|  x2
A|---------|
E|---------|
Tap to rate this tab
 
# A B C D E F G H I J K L M N O P Q R S T U V W X Y Z